Guitaretab - guitar tabs
Song name
# A B C D E F G H I J K L M N O P Q R S T U V W X Y Z

Danny Elfman - Tears To Shed tab

just a tiny little tab for the melody of the chorus of tears to shed from the movie 
bride

I also submitted the lyrics.
The chorus is played twice in the song but with different lyrics so i only used the 
of the second time cause i like them more ;)


e|-----------------------------------|
B|-12-10-12-13-12-10-8-7-8-7-8-10-12-|
G|-----------------------------------|
D|-----------------------------------|
A|-----------------------------------|
E|-----------------------------------|
  If I touch a burning candle I can feel no pain

e|-------------10------------|
B|-12-10-12-13----13-12-10-8-|
G|---------------------------|
D|---------------------------|
A|---------------------------|
E|---------------------------|
In the ice or in the sun itís all the same
[ Tab from: http://www.guitaretab.com/d/danny-elfman/105350.html ]
e|-------------------------------------|
B|--8-7-8-7-8-10-8-7----8-7-8-7-8-10-8-|
G|-------------------------------------|
D|-------------------------------------|
A|-------------------------------------|
E|-------------------------------------|
Yet I feel my heart is aching
Though it doesnít beat, itís breaking

e|---------------------------|
B|-------8-7-8-7-8-10-8------|
G|---------------------------|              x3
D|---------------------------|
A|---------------------------|
E|---------------------------|

And the pain here that I feel
Try and tell me itís not real
I know that I am dead

e|---------------------------|
B|----8-7-8-7-8-10-8-7-5-4-5-|
G|---------------------------|
D|---------------------------|
A|---------------------------|
E|---------------------------|
But it seems that I still have some tears to shedÖ


And for that singing part of the worm and the spider i have a LITTLE sugestion for you:

e|-------0--------0-------------|
B|---1-3---3-1-3----1-3---0-----|
G|----------------------------2-|
D|------------------------------|
A|------------------------------|
E|------------------------------|

If he only knew the You that we know

my 1st tab ever: have fun with it pals!
Related for Tears To Shed tab