Guitaretab - guitar tabs
Song name
# A B C D E F G H I J K L M N O P Q R S T U V W X Y Z

Danny Elfman - Waiting tab

-------------------------------------------------------------------------------
			     WAITING  Danny Elfman
-------------------------------------------------------------------------------
Tabbed by: sonnyscity
Email:sonnyscity@hotmail.com

Tuning:STANDARD

~~~~~~~~~~~~~~~~~~~~~~~~~~~~~~~~~~~~~~~~~~			   ~~~~~~~~~~~~~~~~~~~~~~~

e|-----------------------------------------------------------------------------------------|
B|----------------------7-------------------------7--------------5--------5------------4---|
G|-----------------------------------------------------------------------------------------|
D|----9-----------------------------------9----------------9-------------------------------|
A|-----------------------------------------------------------------------------------------|
E|-----------------------------------------------------------------------------------------|

[ Tab from: http://www.guitaretab.com/d/danny-elfman/172104.html ]
~~~~~~~~~~~~~~~~~~~~~~~~~~~~~~~~~~~~~~~~~~~~			    ~~~~~~~~~~~~~~~~~~~~~~~
e|-----------------------------------------------------------------------------------------|
B|---------------------7----------------------------7--------------5---------5-------------|
G|-----------------------------------------------------------------------------------------|
D|----9-------------------------------------9--------------9----------------------------9--|
A|-----------------------------------------------------------------------------------------|
E|-----------------------------------------------------------------------------------------|
       ~~~~~~
e|-----------------------------------------------------------------------------------------|
B|----4--------4h5----/7-------------------------------------------------------------------|
G|-----------------------------------------------------------------------------------------|
D|-----------------------------------------------------------------------------------------|
A|-----------------------------------------------------------------------------------------|
E|-----------------------------------------------------------------------------------------|

| /  slide up
| \  slide down
| h  hammer-on
| p  pull-off
| ~  vibrato
| +  harmonic
| x  Mute note
===============================================================================
Related for Waiting tab