Song name
# A B C D E F G H I J K L M N O P Q R S T U V W X Y Z

Danny Elfman - This Is Halloween tab

E|-------------------|------------------|
B|--5-5-5-5-5-6-3-3--|-3-3-3-5-6-5-1-1--|
G|-------------------|------------------|
D|-------------------|------------------|
A|-------------------|------------------|
E|-------------------|------------------|

E|-------------------|------------------|
B|-5-5-5-6 6/8-6-5-3-|-3-3-3-5-6-5-1-0-3|
G|-------------------|------------------|
D|-------------------|------------------|
A|-------------------|------------------|
E|-------------------|------------------|

E|-------------------|---------------------|
B|-4-4-4-2-1(x2)-----|-4-------------------|
G|-------------------|---3-3---------3-4---|
D|-------------------|--------6-5-4--------|  (x2)
A|-------------------|---------------------|
E|-------------------|---------------------|
Tap to rate this tab
 
# A B C D E F G H I J K L M N O P Q R S T U V W X Y Z