Song name
# A B C D E F G H I J K L M N O P Q R S T U V W X Y Z

Danny Elfman - Batman Theme tab

Danny Elfman's theme from the 1989 film, "Batman"

Both Guitars
Repeat x2
e|----------------------------------------------------------------|
B|----------------------------------------------------------------|
G|----------------------------------------------------------------|
D|----------------------------------------------------------------|
A|2-------3-2-----------------------------------------------------|
E|0---2-3---------------------------------------------------------|

Rhythm Guitar (Repeat until desired)
e|----------------------------------------------------------------|
B|----------------------------------------------------------------|
G|----------------------------------------------------------------|
D|----------------------------------------------------------------|
A|222-222-222-222-------------------------------------------------|
E|000-000-000-000-------------------------------------------------|

Lead Guitar
e|--------3~~~-2----------2~~~-4-5--------------------------------|
B|-0h1h2--3~~~-3---0h1h2--3~~~-5-5--------------------------------|
G|----------------------------------------------------------------|
D|----------------------------------------------------------------|
A|----------------------------------------------------------------|
E|----------------------------------------------------------------|
Tap to rate this tab
# A B C D E F G H I J K L M N O P Q R S T U V W X Y Z