Song name
# A B C D E F G H I J K L M N O P Q R S T U V W X Y Z

Danny Elfman - Tales From The Crypt tab

Tales From The Crypt(Theme Song) - Danny Elfman
Tabbed by: SaintEve
Email: strife2sorrow@yahoo.com

Tuning: EBGDAE(standard)

Tempo: moderato
E|-----------------------------------------------------------------|
B|-----------------------------------------------------------------|
G|-----------------------------------------------------------------|
D|---------0-1-2-1~--------------------0~-2-3-5-4~-0-2-0-----------|
A|----1-3~----------0-2-3-4/6-0~~----3-------------------3-2-0~~~--|
E|--2------------------------------4-------------------------------|

E|-----------------------------------------------------------------|
B|-----------------------------------------------------------------|
G|-----------------------------------------------------------------|
D|---------0-1-3-2~--------------------0~-1-2-4-3~-0-2-0-----------|
A|----1-3~----------0-2-3-4/6--------3-------------------3-2-0~~~--|
E|--0-------------------------5~~--4-------------------------------|

E|-----------------------------------------------------------------|
B|-----------------------------------------------------------------|
G|-----------------------------------------------------------------|
D|---------0-1-2-1~--------------------0~-2-3-5-4~-0-2-0-----------|
A|----1-3~----------0-2-3-4/6-0~~----3-------------------3-2-0~~~--|
E|--2------------------------------4-------------------------------|

E|-----------------------------------------------------------------|
B|-----------------------------------------------------------------|
G|-----------------------------------------------------------------|
D|---------0-1-3-2~--------------------0~-1-2-4-3~-0-2-0-----------|
A|----1-3~----------0-2-3-4/6--------3-------------------3-2-0~~~--|
E|--0-------------------------5~~--4---------------------0-0-0~~~--|


Note: This was all tabbed by ear, so I may be off somewhere on the D string. If I'm 
anything please let me know. Also, soon I'll have a version with the accompaniment on it as well.

| /  slide up
| \  slide down
| h  hammer-on
| p  pull-off
| ~  vibrato
| +  harmonic
| x  Mute note
Tap to rate this tab
 
# A B C D E F G H I J K L M N O P Q R S T U V W X Y Z