Guitaretab - guitar tabs
Song name
# A B C D E F G H I J K L M N O P Q R S T U V W X Y Z

Danny Elfman - Making Christmas tab

e|--------------------------------------------------------------------------|
B|--------------------------------------------------------------------------|
G|--------------------------------------------------------------------------|
D|--------------------------------------------------------3-2-0-3-2~--------|
A|----------------------------------3-2-3-0-3-2-3-0-3-230-------------------|
E|---3-2-3-0--3-2-3-0--3-2-3--0-323-----------------------------------------|

Repeat throughout entire song, if you prefer you can use this instead though:
[ Tab from: http://www.guitaretab.com/d/danny-elfman/96929.html ]
e|--------------------------------------------------------------------------|
B|--------------------------------------------------------------------------|
G|--------------------------------------------------------3-2-0-3-2---------|
D|----------------------------------3-2-3-0-3-2-3-0-3-230-3-2-0-3-2~--------|
A|---3-2-3-0--3-2-3-0--3-2-3--0-323-3-2-3-0-3-2-3-0-3-230-------------------|
E|---3-2-3-0--3-2-3-0--3-2-3--0-323-----------------------------------------|

Because they both sound so similar I decided to put them both in the same tablature. If 
doesn't sound right use the other, and vice versa.

-Tab by 4yi
contact @ lifelessdeath@hotmail.com
(no guaranteed response if you do)
Related for Making Christmas tab
Advertisement will be closed in 10 seconds