Danny Vola - Never Come Home tab

The whole song is based upon this. It changes up slightly from time to time too. Sorry
if its not perfect but I figured it was a start. Below what is played for most of the
intro and verse and the chorus is almost the same minus the little pull-off/hammer-on 
action on the B and G strings. The hardest part is just getting the timing down especially with
his style.

Capo III


            G                   C

e|----------3---------3------------------------------------------------------|
B|----------3---------3---------0h1---0h1--0--0--0---------------------------|
G|------------------------------0------0---0--2--0---------------------------|
D|---------------------------------------------------------------------------|
A|--------------------2--------3---------------------------------------------|
E|--------3------------------------------------------------------------------|

          E                  Am

e|---------------------------------------------------------------------------|
B|----------------------------0h1--0h1--0--0--0------------------------------|
G|----------------------------0----0----0--2--0------------------------------|
D|------------------2--------------------------------------------------------|
A|------------------2--------------------------------------------------------|
E|--------0------------------------------------------------------------------|


          E                  Am

e|---------------------------------------------------------------------------|
B|----------------------------0h1--1p0h1-------------------------------------|
G|----------------------------2----2-----------------------------------------|
D|------------------2--------------------------------------------------------|
A|------------------2--------------------------------------------------------|
E|--------0------------------------------------------------------------------|



            G

e|----------3---------3----------3---------------------------------------------|
B|----------3---------3----------3---------------------------------------------|
G|-----------------------------------------------------------------------------|
D|-----------------------------------------------------------------------------|
A|--------------------2--------------------------------------------------------|
E|--------3---------------------3----------------------------------------------|




Chorus (just a little change)

            G                   C

e|----------3---------3-----------------x------------------------------------|
B|----------3---------3---------0h1-----x------------------------------------|
G|------------------------------0-------x------------------------------------|
D|--------------------------------------x------------------------------------|
A|--------------------2--------3--------x------------------------------------|
E|--------3-----------------------------x------------------------------------|

          C           D          Am

e|--------------------2-----------------------x------------------------------|
B|--------0-----------3-----------1-----------x------------------------------|
G|--------1-----------------------------------x------------------------------|
D|--------------------0-----------2-----------x------------------------------|
A|--------3-----------------------------------x------------------------------|
E|--------------------------------------------x------------------------------|


          E            Am

e|---------------------------------------x-----------------------------------|
B|----------------------1-----0h1--------x-----------------------------------|
G|--------1-------------------2----------x-----------------------------------|
D|----------------------2----------------x-----------------------------------|
A|--------2------------------------------x-----------------------------------|
E|---------------------------------------x-----------------------------------|



            G

e|----------3---------3----------3--------x----------------------------------|
B|----------3---------3----------3--------x----------------------------------|
G|----------------------------------------x----------------------------------|
D|----------------------------------------x----------------------------------|
A|--------------------2-------------------x----------------------------------|
E|--------3---------------------3---------x----------------------------------|
Tap to rate this tab
 
# A B C D E F G H I J K L M N O P Q R S T U V W X Y Z