Song name
# A B C D E F G H I J K L M N O P Q R S T U V W X Y Z

Danny Worsnop - Savior tab

GUITAR 1


E-------------------|x4
B-------------------|
G---------------8---|
D--8-8-x-8--8-x-8---|
A--8-8-x-8--8-x-6---|
E--6-6-x-6--6-x-6---|


E--6-6-5-6---6-6-5-6---6-6-5-6----8-8-8-8----|
B---6-6-6-6---6-6-6-6---6-6-6-6----6-6-6-6---|
G--------------------------------------------|
D--------------------------------------------|
A--------------------------------------------|
E--------------------------------------------|  


E--------------------------------------|-------|
B--------------------------------------|-------|
G--------------------------------------|-------|
D--8---7-8-3-7-8-3---7-8-3---[7-8-3]x4-|---8---|
A--8---7-8-3-7-8-3---7-8-3---[7-8-3]---|---8---|
E--6---5-6-1-5-6-1---5-6-1---[5-6-1]---|---6---|


E-------------------|x4
B-------------------|
G---------------8---|
D--8-8-x-8--8-x-8---|
A--8-8-x-8--8-x-6---|
E--6-6-x-6--6-x-6---|


E----------------------------------------------------------------------------|
B----------------------------------------------------------------------------|
G----------------------------------------------------------------------------|
D----------------------------------------------------------------------------|
A-------8-------7-------8-------7-------8-------7---10-10-10-10-10-10-10-----|
E--6-6--6--5-5--5--6-6--6--5-5--5--6-6--6--5-5--5---8--8--8--8--8--8--8------|
   * *     * *     * *     * *     * *     * *   

SOLO:

E--17h18-17---------17b-15-17b----------------------------------------------------------|
B-----------18--------------------------------------------------------------------------|
G--------------15---------------15-14-10--------3---3------5b--7--7--5--3---3----3--5---|
D-------------------------------------------3h5---5---5--3----------------5----5--------|
A---------------------------------------------------------------------------------------|
E---------------------------------------------------------------------------------------|

E----6----------------------------------------------------------------|
B--3---6--------11-10-------------------------------------------------|
G--------7-------------12-10--------7-8-7---------7-8-10-8-7----7-8---|
D----------8-------------------8-10-------10-8-10------------10-------|
A---------------------------------------------------------------------|
E---------------------------------------------------------------------|

E-------------------------------------------|------------------8---------------8-10-8------|
B-----8-------------8-10-8---------8-10-11--|--10-8----8-10-11---11-10-8-10-11---------11--|
G--10---10-8-7-8-10--------10-8-10----------|-------10-------------------------------------|
D-------------------------------------------|----------------------------------------------|
A-------------------------------------------|----------------------------------------------|
E-------------------------------------------|----------------------------------------------|

E-----------10-11-10----------11-13-15-13-11----------18----17----18--|
B--10-11-13----------13-11-15----------------15-13--------------------|
G---------------------------------------------------------------------|
D---------------------------------------------------------------------|
A---------------------------------------------------------------------|
E---------------------------------------------------------------------|

E--6---6---6---6--6----6--6----6----6--6|--3----3----3----3--3--|--1--1--1----1----1--1--|
B--6---6---6---6--6----6--6----6----6--6|--3----3----3----3--3--|--1--1--1----1----1--1--|
G--8---8---8---8--8----8--8----8----8--8|--3----3----3----3--3--|--2--2--2----2----2--2--|
D--8---8---8---8--8----8--8----8----8--8|--5----5----5----5--5--|--3--3--3----3----3--3--|
A--6---6---6---6--6----6--6----6----6--6|--5----5----5----5--5--|--3--3--3----3----3--3--|
E---------------------------------------|--3----3----3----3--3--|--1--1--1----1----1--1--|

E--6----6----6----6--6----6--6----6----6--6--|--1----1----1----1--1----1--1--1----1----1--1--|
B--6----6----6----6--6----6--6----6----6--6--|--1----1----1----1--1----1--1--1----1----1--1--|
G--8----8----8----8--8----8--8----8----8--8--|--2----2----2----2--2----2--2--2----2----2--2--|
D--8----8----8----8--8----8--8----8----8--8--|--3----3----3----3--3----3--3--3----3----3--3--|
A--6----6----6----6--6----6--6----6----6--8--|--3----3----3----3--3----3--3--3----3----3--3--|
E--------------------------------------------|--1----1----1----1--1----1--1--1----1----1--1--|

E----------------------------------------------------|
B----------------------------------------------------|
G----------------------------------------------------|
D--8--------5-------3-------8--------5-------3-------|
A--8-(x16)--5-(x8)--3-(x8)--8-(x16)--5-(x8)--3-(x8)--|
E--6--------3-------1-------6--------3-------1-------|
Tap to rate this tab
 
# A B C D E F G H I J K L M N O P Q R S T U V W X Y Z