Song name
# A B C D E F G H I J K L M N O P Q R S T U V W X Y Z

Dansety - All That I Want tab

All that i want ( anna) , Dansety 2002.


Accoorden:

    A  E  G   D     G   Am   D
E---------3---2-----3--------2---E
B---2---------3---------1----3---B
G---2--1------2---------2----2---G
D---2--2----------------2--------D
A------2--2---------2------------A
E---------3---------3------------E

Intro:


E------0-------------0-------------3------0------2--------------E
B--------2----0--------0----0--------0-------------3----0-------B
G----2-----2-----1-------1-------0-----0-------2-----2----------G
D-------------------------------------------0-------------------D
A--0------------------------------------------------------------A
E---------------0--------------3--------------------------------E

Verse I:
G           Am            
Anna when i dream of you, 

D                G  
i feel you in my heart.

G                   Am                
and Anna I close my eyes, 

            Am                 G  
But i still see you when we're apart.


Chorus:

      A            E          G          D
Cause Anna, you're all that i want in my life...
      A     E           G           D     
And without you, i dont know how to survive.
A         E               G  D
i've been searching for , so long
    A       E              G              D
and without you everything seems to be so wrong. 


Verse II : same as first.

so Anna, in you i found true love,
i wanna hold you till all time ends.
And Anna, its you im thinking of,
so i place my life, in your sweet hands.

Ending, same as intro...


written by: Danny van Tongeren.
Tap to rate this tab
# A B C D E F G H I J K L M N O P Q R S T U V W X Y Z