Song name
# A B C D E F G H I J K L M N O P Q R S T U V W X Y Z

Dany Bedard - Faire La Paix Avec Lamour tab

Et voilà la tablature d'une excellente chanson! Enjoy! :)

Standard Tuning -No Capo

                Am 
 |-8--7--5--0---------------------|
 |------------------1--0-----3----|
 |------------------------2-------|    (x4)
 |---------------2----------------|
 |-------------0------------------|
 |--------------------------------|


               Am 
 J'ai pas d'mandé à venir au monde
                 Dm 
 J'veux pas non plus rester dans l'ombre
                 F 
 J'ai pas choisi celui que j'aime
              E 
 J'veux pas non plus cacher ma peine


               Am 
 |-8--7--5--0---------------------|
 |------------------1--0-----3----|
 |------------------------2-------|    (x2)
 |---------------2----------------|
 |-------------0------------------|
 |--------------------------------|


           Am 
 Je suis pendu à tes lèvres
               Dm 
 J'entend la porte qui se referme
               F 
 J'éteint le soleil qui se lève
                E 
 T'a jamais su calmer ma fièvre
                Am 
 T'as jamais pu lever les poings
               Dm 
 Pourtant je pleure toutes les nuits
                 F 
 Ces blessures là, je les guéris
              E 
 J'ai l'impression que ça va trop loin


 F             G              C 
 J'ai dû combattre mes envies
 F            G               Am 
 Et faire semblant d'aimer la vie
 F               G           C 
 Mais aujourd'hui c'est à mon tour
       C/B        Am    G         F 
 De pousser la porte et voir le jour
              G            F 
 De reconnaître qui je suis
                E           Am 
 Et faire la paix avec l'amour


               Am 
 |-8--7--5--0---------------------|
 |------------------1--0-----3----|
 |------------------------2-------|    (x2)
 |---------------2----------------|
 |-------------0------------------|
 |--------------------------------|


              Am 
 J'ai peur de ta voix et du noir
               Dm 
 Le noir qui longe le désespoir
            F 
 Celui-là même qui me pousuit
              G 
 Et qui me plonge dans l'oubli


               Am 
 |-8--7--5--0---------------------|
 |------------------1--0-----3----|
 |------------------------2-------|    (x2)
 |---------------2----------------|
 |-------------0------------------|
 |--------------------------------|


             Am 
 J'ai pas d'mandé a v'nir au monde
                 Dm 
 J'veux pas non plus rester dans l'ombre
              F 
 J'ai pas choisi celui que j'aime
              G 
 Et je ne fais qu'un avec ma peine


 F             G              C 
 J'ai dû combattre mes envies
 F            G               Am 
 Et faire semblant d'aimer la vie
 F               G           C 
 Mais aujourd'hui c'est à mon tour
       C/B        Am    G         F 
 De pousser la porte et voir le jour
              G            F 
 De reconnaître qui je suis
                E           Am 
 Et faire la paix avec l'amour


               Am 
 |-8--7--5--0---------------------|
 |------------------1--0-----3----|
 |------------------------2-------|    (x3)
 |---------------2----------------|
 |-------------0------------------|
 |--------------------------------|


 F             G              C 
 J'ai dû combattre mes envies
 F            G               Am 
 Et faire semblant d'aimer la vie
 F               G           C 
 Mais aujourd'hui c'est à mon tour
       C/B        Am    G         F 
 De pousser la porte et voir le jour
              G            F 
 De reconnaître qui je suis
                E           Am 
 Et faire la paix avec l'amour


               Am 
 |-8--7--5--0---------------------|
 |------------------1--0-----3----|
 |------------------------2-------|    (x4)
 |---------------2----------------|
 |-------------0------------------|
 |--------------------------------|
Tap to rate this tab
# A B C D E F G H I J K L M N O P Q R S T U V W X Y Z