Song name
# A B C D E F G H I J K L M N O P Q R S T U V W X Y Z

Danyo Cummings - Perfect Together tab

-------------------------------------------------------------------------------
			     Perfect Together - Danyo Cummings
-------------------------------------------------------------------------------
Tabbed by: buffalosoldier	
Email: janegrete89@hotmail.com

Tuning: Standard

capo on 4th fret

INTRO:

e|---2--2-2-2-3-2--2--2-2-2-3-2--2--2-2-2-3-2-2-3-2-0-----------------------------|
B|---3-------------2-------------3--------------------3---------------------------|
G|---2-------------2-------------4------------------------------------------------|
D|---0-------------x-------------4------------------------------------------------|
A|--------------------------------------------------------------------------------|
E|--------------------------------------------------------------------------------|


VERSE:

e|---x-2-2-X-2-2--x-2-2-x-2-2--x-2-2-x-2-2--x-3-3-3-3--|
B|---x-3-3-x-3-3--x-2-2-x-2-2--x-3-3-x-3-3--x-3-3-3-3--|
G|---x-2-2-x-2-2--x-2-2-x-2-2--x-4-4-x-4-4--x-4-4-4-4--|
D|---x-----x------x-----x------x-4-4-x-4-4--x-5-5-5-5--|
A|---x-----x------x-----x------x-2-2-x-2-2--x-5-5-5-5--|
E|---x-----x------x-----x------x-----x------x-3-3-3-3--|
 

Chorus:

(semi palm-muted)

e|--x-2-2-x-2-2--x-3-3-x-3-3--x-2-2-x-2-2--x-3-3-3-3-----------------------------|
B|--x-3-3-x-3-3--x-3-3-x-3-3--x-3-3-x-3-3--x-3-3-3-3-----------------------------|
G|--x-2-2-x-2-2--x-4-4-x-4-4--x-2-2-x-2-2--x-4-4-4-4-----------------------------|
D|--x-----x------x-5-5-x-5-5--x-----x------x-5-5-5-5-----------------------------|
A|--x-----x------x-5-5-x-5-5--x-----x------x-5-5-5-5-----------------------------|
E|--x-----x------x-3-3-x-3-3--x-----x------x-3-3-3-3-----------------------------|

Bridge:

same chords as the verse

e|---x-2-x-2-X-2-x-2--x-2-x-2-x-2-x-2--x-2-x-2-x-2-x-2--x-3-x-3-x-3-x-3--|
B|---x-3-x-3-x-3-x-3--x-2-x-2-x-2-x-2--x-3-x-3-x-3-x-3--x-3-x-3-x-3-x-3--|
G|---x-2-x-2-x-2-x-2--x-2-x-2-x-2-x-2--x-4-x-4-x-4-x-4--x-4-x-4-x-4-x-4--|
D|---x---x---x---x----x---x---x---x----x-4-x-4-x-4-x-4--x-5-x-5-x-5-x-5--|
A|---x---x---x---x----x---x---x---x----x-2-x-2-x-2-x-2--x-5-x-5-x-5-x-5--|
E|---x---x---x---x----x---x---x---x----x---x---x---x----x-3-x-3-x-3-x-3--|

| /  slide up
| \  slide down
| h  hammer-on
| p  pull-off
| ~  vibrato
| +  harmonic
| x  Mute note
===============================================================================
Tap to rate this tab
 
# A B C D E F G H I J K L M N O P Q R S T U V W X Y Z