Song name
# A B C D E F G H I J K L M N O P Q R S T U V W X Y Z

Danzig - Danzig tab

This is not my work, credit goes to the ones who worked hard tabbing these song.
===============================================================================
                             TWIST OF CAIN
                             =============

Hey people hope you like this tabs. They are the best, if you don't think so
email me at misfits_1989@hotmail.com

  intro:
E|-----------------|
B|-----------------|
G|-----------------|
D|-----------------|
A|-6^--------------|
E|-----------------|

  main riff / chorus riff:
E|-----------------|-----------------|-----------------|-------------------+
B|-----------------|-----------------|-----------------|-------------------+
G|-----------------|-----------------|-----------------|-8--8--8-----------+
D|-----------------|-AH--------------|-----------------|-8--8--8-----------+
A|-7---0-6-0-3-0-0-|-7---0-6-0-3-0-0-|-7-7-0-6-0-3-0-0-|-6--6--6-----6^----+
E+-----------------|-----------------|-----------------|-6--6--6-----------+
 |                                                                       |
 |                                                                       |
G+-----------------|-----------------|-----------------|-------------------+
D|-----------------|-----------------|-----------------|-------------------+
A|-0-0-0-0-0-0-0-0-|-0-0-0-0-0-0-0-0-|-0-0-0-0-0-0-0-0-|-6--6--6-----6-----+
E|-----------------|-----------------|-----------------|-------------------+

  verse:
e|--------------------------|-------------------------------+
B|--------------------------|-------------------------------+
G|--------------------------|-------------------------------+
D|--------------------------|-------------------15\---------+
A|--7--7--7-10-10-10-10-10--|--7--7--7-10-10-10-15\---------+
E+--5--5--5--8--8--8--8--8--|--5--5--5--8--8--8-15\---------+
 |  PM---------------------------------------->       ---+
 |                                                     |
G+--------------------------|----------------------------+
D|--------------------------|----------------------------+
A|--7--7--7-10-10-10-10-10--|--7--7--7-10-10-10----------+
E|--5--5--5--8--8--8--8--8--|--5--5--5--8--8--8-15\------+

  verse end:
e|--------------------------|-------------------------------+
B|--------------------------|-------------------------------+
G|--------------------------|--8----8----8------------------+
D|--------------------------|--8----8----8------------------+
A|--7--7--7-10-10-10-10-10--|--6----6----6-------6^---------+
E+--5--5--5--8--8--8--8--8--|--6----6----6------------------+
 |  PM------------------->                            ---+
 |                                                     |
G+--------------------------|----------------------------+
D|--------------------------|----------------------------+
A|--------------------------|--6----6----6-------6-------+
E|--5--5--5--8--8--8--8--8--|----------------------------+

  bridge:
E|-----------------|-----------------|-----------------|-------------------+
B|-----------------|-----------------|-----------------|-------------------+
G|-2---------------|-----------------|-8---------------|-------------------+
D|-2---------------|-----------------|-8---------------|-5-5-5---7--7--7---+
A|-0---------------|-3^--0-------0---|-6---------------|-3-3-3-0-5--5--5---+
E+-----------------|---------3^------|-6---------------|-------------------+
 |                                                                       |
 |                                                                       |
G+-----------------|-----------------|-----------------|-------------------+
D|-----------------|-----------------|-----------------|-------------------+
A|-0---------------|-3^--0-------0---|-6---------------|-3-3-3-0-5--5--5---+
E|-----------------|---------3^------|-----------------|-------------------+

-songflow-
 intro
 main riff (4x)
 verse     (3x)
 verse end
 chorus    (2x)
 verse     (3x)
 verse end
 chorus    (2x)
 bridge    (4x)
 chorus    (2x)
 verse     (3x)
 verse end
 chorus    (2x)
 bridge    (6x)
 A         (4x)


=============================================================================
  	 Not Of This World Tab by Danzig, www.Ultimate-Guitar.Com

#----------------------------------PLEASE NOTE---------------------------------#
#This file is the author's own work and represents their interpretation of the #
#song. You may only use this file for private study, scholarship, or research. #
#------------------------------------------------------------------------------##
                              NOT OF THIS WORLD
                              -----------------
                            As recorded by Danzig
                           From the album Danzig I

Written by Glenn Danzig
Tab by Robert Flemming (rflemmin@ced.berkeley.edu)

SongFlow
--------
Figure 1 (4x)
Figure 2
Fill 1
Figure 3 (4x)
Figure 2
Fill 2
Figure 4 (4x)
Figure 2
Fill 2
Figure 3 (4x)
Figure 1 (2x)
Outro


Figure 1
e+-------------------+---------------------+
B+-------------------+---------------------+
G+--2----------------+--2--(2)--5----------+
D+--2----------A.H.--+--2--(2)--5--5--(5)--+
A+--0--3--0--7--6----+--0--(0)--3--5--(5)--+
E+-------------------+-------------3--(3)--+


Figure 2
e+----------7----------------7----------------3------------------3-------+
B+----------7----------------7----------------3------------------3-------+
G+-----------------------------------------------------------------------+
D+-----------------------------------------------------------------------+
A+-----------------------------------------------------------------------+
E+--7-7-7-7----7-7-7-7-7-7-7----7-7-7-3-3-3-3----3-3-3-3-3-3-3-3---------+
    P.M.-->    P.M.-------->    P.M.-------->    P.M.-----------+gt;


Figure 2 (continued)                            Fill 1
e+----------------7----------------7---------+  +------------+
B+----------------7----------------7---------+  +------------+
G+-------------------------------------------+  +------------+
D+-------------------------------------------+  +--2--(2)----+
A+-------------------------------------------+  +--2--(2)----+
E+--3-3-3-7-7-7-7----7-7-7-7-7-7-7----7-7-7--+  +--0--(0)----+
    P.M.-------->    P.M.---------------------------------+gt;    P.M.>


Figure 3
e+---------------------+--------------------+
B+---------------------+--------------------+
G+--2--(2)--5----------+--2--5-5-5----------+
D+--2--(2)--5--5--(5)--+--2--5-5-5--5--(5)--+
A+--0--(0)--3--5--(5)--+--0--3-3-3--5--(5)--+
E+-------------3--(3)--+------------3--(3)--+


Fill 2
e+----------3----------------3----------------7----------------7-------+
B+----------3----------------3----------------7----------------7-------+
G+---------------------------------------------------------------------+
D+---------------------------------------------------------------------+
A+---------------------------------------------------------------------+
E+--3-3-3-3----3-3-3-3-3-3-3----3-3-3-7-7-7-7----7-7-7-7-7-7-7---------+
    P.M.-->    P.M.-------->    P.M.-------->    P.M.---------+gt;

Fill 2 (continued)
e+----------------3----------------3-----------+
B+----------------3----------------3-----------+
G+---------------------------------------------+
D+---------------------------------------------+
A+---------------------------------------------+
E+--7-7-7-3-3-3-3----3-3-3-3-3-3-3----3-3-3----+
    P.M.-------->    P.M.-------------------+gt;    P.M.>


Fill 2 (continued)
+------------------+-----------------+-----------------+----------+
+------------------+-----------------+-----------------+----------+
+------5-----5---5-+-----4-----4---4-+-----------------+----------+
+----5-----5-------+---4-----4-------+-----5-----5---5-+--2--(2)--+
+--3-----3-----3---+-2-----2-----2---+---5-----5-------+--2--(2)--+
+------------------+-----------------+-3-----3-----3---+--0--(0)--+

Figure 4
e+---------------------+--------------------+
B+---------------------+--------------------+
G+--4--(4)--7----------+--4--7-7-7----------+
D+--4--(4)--7--7--(5)--+--4--7-7-7--7--(7)--+
A+--2--(2)--5--7--(5)--+--2--5-5-5--7--(7)--+
E+-------------5--(3)--+------------5--(5)--+


Outro
e+------------------+---------------+---------------+
B+------------------+---------------+---------------+
G+--2---------------+---------------+---------------+
D+--2----------A.H.-+----------A.H.-+----------A.H.-+
A+--0--3--0--7--6---+--3--0--7--6---+--3--0--7--6---+
E+------------------+---------------+---------------+

Outro (continued)
+-------------------------+
+-------------------------+
+--2--5--7--9--12--14--/--+
+--2--5--7--9--12--14--/--+
+--0--3--5--7--10--12--/--+
+-------------------------+
                  Trem Pick

=============================================================================
  	 She Rides Tab by Danzig, www.Ultimate-Guitar.Com

#----------------------------------PLEASE NOTE---------------------------------#
#This file is the author's own work and represents their interpretation of the #
#song. You may only use this file for private study, scholarship, or research. #
#------------------------------------------------------------------------------##
                                She Rides
                                ---------
                           As recorded by Danzig
                          from the album Danzig I

Written by Glenn Danzig
Tab by Robert Flemming (rflemmin@ced.berkeley.edu)

SongFlow
--------
Drum Intro
Intro
Figure 1 (4x)
Figure 2 (8x)
Figure 3
G F# E
Figure 1
G F# E
Figure 1
Figure 2 (4x)
Figure 3
G F# E
Figure 1
G F# E
A G# G D
A G# G F
Figure 1 (4x)
Figure 2 (4x)
Figure 3
G F# E
Figure 1
G F# E
Figure 1
A G# G D
A G# G F
A G# G D
A G# G F

Intro
e+---------------------------+
B+---------------------------+
G+---------------------------+
D+----------------7--9-------+
A+----------------5--7-------+
E+--/\/\/\/\/\/\--------(0)--+
    pick scratch        bass

Figure 1               1/2 step         bend & release
e+---------------------------------------------+
B+------------------------7^-------------------+
G+------------------------7^-------------------+
D+--7--9-----9-------------------9-------------+
A+--5--7--7-----7--10--9------7-----7--10--9^--+
E+---------------------------------------------+

Figure 2  PM    PM    PM
e+--------------------------+
B+--------------------------+
G+--------------------------+
D+--7--9-----9-----9-----9--+
A+--5--7--7--7--7--7--7--7--+
E+--------------------------+

Figure 3
e+-----------------+-R-+--------------------+-R-+
B+-----------------+-E-+--------------------+-E-+
G+--2----/9--8-----+-P-+-------/7--6--7-----+-P-+
D+--2-----------9--+-E-+--2--------------7--+-E-+
A+--0--------------+-A-+--2-----------------+-A-+
E+-----------------+-T-+--0-----------------+-T-+

                                /|  __  ___   ___  __  |\
 ******************************|  --  -^   \_/   ^-  --  |****************---+
 * morrigu@uclink.berkeley.edu \       ---_   _---      ---------------------+          *
 *              &               ----^\|   _>_<_   |/^--------------+  Robert Flemming *
 *  rflemmin@ced.berkeley.edu        / --- / \ --- \-------------------------+          *
 ************************************\__/| -^- |\__/************************
                                         \ MMM /


=============================================================================
  	 Soul On Fire Tab by Danzig, www.Ultimate-Guitar.Com

                    D  A  N  Z  I  G
                 S O U L  O N  F I R E
                      DANZIG (1988)

Intro (piano arranged for guitar):
-----------------------------------------------------|
-----------------------------------------------------|
--4-----4-----4----7----2----7----4---------2----7---|
4-------------------------------------2--------------|
--2-----2-----2----5----0----5----2---2-----0----5---|
--------------------------------------0--------------|

Verse
--------------------------------------------------------------|
--------------------------------------------------------------|
--------------------------------------------------------------|
-4---------------7---------------2---------------7------7--7--|
-2--2-2-2-2-2-2--5--5-5-5-5-5-5--0--0-0-0-0-0-0--5--5-5-5--5--|
--------------------------------------------------------------|

----------------------------------------------------------------|
----------------------------------------------------------------|
----------------------------------------------------------------|
-4-------------------------------2---------------7------7--7----|
-2--2-2-2-2-2-2---2--------------0--0-0-0-0-0-0--5--5-5-5--5----|
------------------0---------------------------------------------|

Chorus
----------------------------------|
----------------------------------|
----------------------------------|
-4-4--7-7--9-9----------------7---|
-2-2--5-5--7-7-------5--5-5---5---|
---------------------3--3-3-------|

Solo
-------------|-------------|-------------|-------------------|
-------------|-------------|-------------|-------------------|
-------------|-------------|-------------|-------------------|
-----x15-----|--x8---------|-----x7------|-------------7-----|
--4--4-4--4--|--5--5-5--5--|--4--4-4--4--|----5--------5-----|
--2--2-2--2--|--3--3-3--3--|--2--2-2--2--|----3--------------|

Outro
------------|-----------------------------------|
------------|-----------------------------------|
------------|-----------------------------------|
-2----------|----7------------------------------|
-2----------|-5--5----77777777777777777777\-----|
-0-00000000-|-3---------------------------------|

/metal_up_your_ass@2die4.com
=============================================================================
#----------------------------------PLEASE NOTE---------------------------------#
#This file is the author's own work and represents their interpretation of the #
#song. You may only use this file for private study, scholarship, or research. #
#------------------------------------------------------------------------------##
                                AM I Demon
                                ----------
                          As recorded by Danzig
                         From the album Danzig I

Written by Glenn Danzig
Tab by Robert Flemming (rflemmin@ced.berkeley.edu)


SongFlow
--------
Intro (4x)
Figure 1 (4x)
Fill 1
Figure 1 (10x)
Fill 2
Figure 1 (10x)
Fill 2
Figure 3 (4x)
Figure 1 (8x)
Fill 2
Figure 3 (4x)
Figure 1 (10x)
Fill 2
Figure 3 (4x)
Figure 1 (8x)
Fill 2
Outro


Intro
e+---------------------------+---------------------------+
B+---------------------------+---------------------------+
G+---------------------------+---------------------------+
D+--7/9----------7/9---------+--7/9----------------12----+
A+--5/7-7-7-7-7--5/7-7-7-7-7-+--5/7-7-7-7-7-7-7-7--10----+
E+---------------------------+---------------------------+
        P.M>-->      P.M.-->        P.M.-----------------+

Figure 1
e+---------------------------+---------------------------+
B+---------------------------+---------------------------+
G+---------------------------+---------------------------+
D+--7/9----------7/9---------+--7/9----------------12----+
A+--5/7----------5/7---------+--5/7----------------10----+
E+------0-0-0-0------0-0-0-0-+------0-0-0-0-0-0-0--------+
        P.M>-->      P.M.-->        P.M.-----------------+

Fill 1                      Fill 2
e+---------+----N.H.----+   +---------+----------+
B+---------+-----7\-----+   +---------+----------+
G+---------+-------\----+   +---------+----------+
D+--5--(5)-+--------\/--+   +--5--(5)-+----------+
A+--3--(3)-+--7---------+   +--3--(3)-+--7--(7)--+
E+---------+--5---------+   +---------+--5--(5)--+
                 Dive /w Bar

Figure 2
e+---------------------------+-----------------------+
B+---------------------------+-----------------------+
G+---------------------------+-----------------------+
D+---------------------------+---------------7-------+
A+--7/9----------7/9---------+--7/9----------5--7----+
E+--5/7-7-7-7-7--5/7-7-7-7-7-+--5/7-7-7-7-7-----5----+
        P.M.-->      P.M.-->        P.M.-------------+

Outro
e+---------------------------+----------------------------+
B+---------------------------+----------------------------+
G+---------------------------+----------------------------+
D+---------------------------+---------------7------------+
A+--7/9----------7/9---------+--7/9----------5--7--9------+
E+--5/7-7-7-7-7--5/7-7-7-7-7-+--5/7-7-7-7-7-----5--7------+
        P.M.-->      P.M.-->        P.M.------------------+        Trem Pick
=============================================================================
  	 Mother Tab by Danzig, www.Ultimate-Guitar.Com

#----------------------------------PLEASE NOTE---------------------------------#
#This file is the author's own work and represents their interpretation of the #
#song. You may only use this file for private study, scholarship, or research. #
#------------------------------------------------------------------------------##

From: clsmith@engin.umich.edu (CHRISTOPHER LEE SMITH)
Subject: TAB: Mother, Danzig (diff from Nev.)

This TAB transcription was created using TAB MASTER version 1.0
If you enjoy using this program, please consider telling the author
about it: Ofir Zwebner, e-mail: ofirz1@ccsg.tau.ac.il
                    snail-mail: Ehoud 10, Tel Aviv, 69936, Israel

--------------------------------------------------------------------

        Hello! I found this song tabbed by Gary Coulbourne at Nevada, but I
thought that this might be easier to play because the finger positions
are all power chords with some index finger lifting.
        I haven't practiced Gary Coulbourne's tab of Mother enough to be able
to play it up to speed and see how it sounds, so I just tabbed it myself.
        This is my first tab, so tell me what you think! And let me know
if there are any gross errors. All input welcome.

        clsmith@engin.umich.edu


 - - - Mother - - - by Danzig

                Intro                 Main Verse
e:---------|-------------------|---------------------------------|
B:---------|-------------------|---------------------------------|
G:---------|-------------------|---------------------------------|
D:---9-----|--5----7----9------|--------5--------7--------9-9-9--|
A:---9-----|--5----7----9------|--------5--------7--------9-9-9--|
E:---7-----|--3----5----7------|--7--5--3--3--5--5--5--7--7-0-7--|
           \   (Play 7X)       /\           (Play 8X)            /
            Mother, tell ....


  Main verse Before Chorus
e:-------------------------|
B:-------------------------|
G:-------------------------|
D:--------5--------7-------|
A:--------5--------7-------|
E:--7--5--3--3--5--5--5--7-|
  Fatherrrrrrrrrrrr . . .

               Chorus
e:---------------------------------------------------------|
B:---------------------------------------------------------|
G:---------------------------------------------------------|
D:---5---5--5-5----7---7--7-7----9---9-------9----7----5---|
A:---5---5--5-5----7---7--7-7----9---9-------9----7----5---|
E:---3---3--3-0----5---5--5-0----7---7-------7----5----3---|
  \                       (Play 3X)                        /
 (oh, you all know the song. Tab only from now on . . . )


        Chorus Interlude
e:--------------------------------------------------------------|---------|
B:--------------------------------------------------------------|---------|
G:--------------------------------------------------------------|---------|
D:---5---5--5-5----7---7--7-7---5-5-5-5-5-5-5-5-5-5-------------|--9-9-9--|
A:---5---5--5-5----7---7--7-7---5-5-5-5-5-5-5-5-5-5-------------|--9-9-9--|
E:---3---3--3-0----5---5--5-0---3-3-3-3-3-3-3-3-3-3-------------|--7-0-7--|
                                \   palm muted    /

     Main Verse
e:--------------------------------|--------------------|
B:--------------------------------|--------------------|
G:--------------------------------|--------------------|
D:--------5--------7--------9-9-9-|--------5----7------|
A:--------5--------7--------9-9-9-|--------5----7------|
E:--7--5--3--3--5--5--5--7--7-0-7-|--7--5--3----5------|
  \            (Play 7X)          /

               Chorus
e:---------------------------------------------------------|
B:---------------------------------------------------------|
G:---------------------------------------------------------|
D:---5---5--5-5----7---7--7-7----9---9-------9----7----5---|
A:---5---5--5-5----7---7--7-7----9---9-------9----7----5---|
E:---3---3--3-0----5---5--5-0----7---7-------7----5----3---|
  \                       (Play 3X)                        /

        Chorus Interlude
e:--------------------------------------------------------------|
B:--------------------------------------------------------------|
G:--------------------------------------------------------------|
D:---5---5--5-5----7---7--7-7---5-5-5-5-5-5-5-5-5-5-------------|
A:---5---5--5-5----7---7--7-7---5-5-5-5-5-5-5-5-5-5-------------|
E:---3---3--3-0----5---5--5-0---3-3-3-3-3-3-3-3-3-3-------------|
                                \   palm muted    /


e:--------------------------|
B:--------------------------|
G:--------------------------|
D:--------------------------|
A:--------------------------|
E:--3-3-3-3-3-3-3-3-3-3-3-3-|
    \  heavy palm muting  /

    /      Solo Goes Over All Of This         \    /  Ending             \
e:-----|----------------------------|------------------------------------|
B:-----|----------------------------|------------------------------------|
G:-----|----------------------------|------------------------------------|
D:--9--|---5--7--9------13--11--9---|--5--7--9-----13-13-13-11-11-----9--|
A:--9--|---5--7--9------13--11--9---|--5--7--9-----13-13-13-11-11-----9--|
E:--7--|---3--5--7------11--9---7---|--3--5--7-----11-11-11--9--9-----7--|
        \            Play 3X        /

Smitty is  . . .  clsmith@engin.umich.edu
   _____________________________________________________________________
 /                                                                       \
|         This .sig has been deemed unappropriate and obscene.            |
 \_______________________________________________________________________/
--


From: dylan@mail.csh.rit.edu (Gary Coulbourne)
                                ============

                                  MOTHER

                                ============

                                by Danzig


|---------------------------------------|------------------------------------|
|------0--------------------------------|------------------------------------|
|--4---0-----2----4------X--0----2----4-|--(4)-----2--4--0----0--2--2------4-|
|--4---0-----2----4---------0----2----4-|--(4)--0--2--4--0----0--2--2---0--4-|
|--2---2-----0----2---------2----0----2-|--(2)--2--0--2--2-------0------0--2-|
|------3----------X---------3-----------|-------3--------3--3----------------|
                         (Play 3x)

|----------------------------------------------------------------------------|
|--------------------0-------0-------------------------------------------0---|
|-(4)-----4---4------0-------0---2---2---0---4-------4---4-------0-------0---|
|-(4)-2---4---4---0--0---0---0---2---2---0---4---2---4---4---0---0-----------|
|-(2)-2---2-------0--2---2-------0-----------2---2---2---2---0---2---2-------|
|--------------------3---3---------------------------------------3---3-------|

|-----------------|----------------------------------------------------------|
|-----------------|----------------------------------------------------------|
|-2-----------4---|------4---4-------0-------0---2---2---0---4-------0-------|
|-2---2-------4---|--2---4---4---0---0-------0---2---2---0---4---0---0-------|
|-0---0---2---2---|--2---2-------0---2---2-------0-----------2---0---2-------|
|---------2-------|------------------3---3---------------------------3-------|

                                         1-------   2-------------------------+
|---------------------------------------|----------|--------------------------+
|---------------------------------------|----------|--------------------------+
|----------------------2----2---2-----4-|-4---2----|--4--2--5-----------------+
|--5---5---5---5-------2----2---2-----4-|-4---2----|--4--2--5-----------------+
|--5---5---5---5-------0----0---0--0--2-|-2---0----|--2--0--5-----------------+
|--3---3---0---0---0---------------0--2-|----------|--------3-----------------+
                               Play 2x

|---------------------------------------------|------------------------------|
|---------------------------------------------|------------------------------|
|------4---4-----2----2----2-2---4---4---4---2|----------------2-------------|
|--5---5---5-----2----2----2-2---4---4---4---2|-5--5---5-5-----2-------------|
|--5---5---5-----0----0----0-0-0-2---2---2---0|-5--5---5-5--5--0-------------|
|--3---0---0--0----------------0-2---2--------|-3--3---3-3--3----------------|


                            D.S. al Coda

|--------------------------------------|
|--------------------------------------|
|-2---2-2-2-2-------------------------4|
|-2---2-2-2-2---------------------4---4|
|-0---0-0-0-0---4-4-4-4-4-4-4-4---4---2|
|---------------2-2-2-2-2-2-2-2---2----|


        This is most of the song minus the guitar solo (which I don't have).
        I hope this helps.


--
                  Gary M. Coulbourne -- Dylan@nick.csh.rit.edu
A feminine principle of birth, growth, decay, and rebirth lies at the heart of
the veneration of the bear, for the bear is the suprime model--and therefore theguiding 
the theme of
=============================================================================
POSSESSION
==========
transcription: Mike Inzerillo, Ryq

Note: The rhythm guitar has a little flange on it.

  riff 1a:                            riff 1b:
E|---------------------------------| |---------------------------------|
B|---------------------------------| |---------------------------------|
G|---------------------------------| |---------------------------------|
D|---------------------------------| |---------------------------------|
A|-7---7-----7---7\6---6-----6---6/| |-----------------6---6-----6---6/|
E|-5---5-----5---5\4---4-----4---4/| |-5~----7~----5~--4---4-----4---4/|

Note:  The chord noted as "C/B" is simply a C chord with the B note as the
       lowest note (-x-2-5-5-x-x-).  Since it is coupled with the C chord,
       simply move the index finger down one fret to form this chord.

 backtracked Latin prayer...
 riff 1a (3x) riff 1b [3x]
 D E  F
 riff 1a (3x) riff 1b [2x]
 C#  C C/B C (4x)
 D E  F
 F  C B (3x)
 Eb  F
 riff 1a (3x) riff 1b [2x]
 C#  C C/B C (4x)
 D E  F
 F  C B (3x)
 Eb  F
 F  C B (3x)
 Eb
=============================================================================
END OF TIME
===========
transcription: Mike Inzerillo

-songflow-
 Part 1 times 4
 Part 2 times 1
 Part 3 times 1
 Part 4 times 2
 Part 1 times 2
 Part 3 times 1
 Part 4 times 2
 Part 1 times 2
 Part 5 times 2
 Part 3 under solo
 Part 1 times 2
 Part 2 times 4  ending on F

 Part 1
 -----------------------------------------------------------------------|
 -----------------------------------------------------------------------|
 ------4-----4---4------5-----5---5------7-----7---7------5----5----5---|
 -----------------------------------------------------------------------|
 ----2-----2---2------3-----3---3------5-----5---5------3---3----3------|
 --0-----0----------0-----0----------0-----0----------0----0------------|

 Part 2
 -----------------------------------------------------------------------|
 -----------------------------------------------------------------------|
 -----------------------------------------------------------------------|
 ---2--------5-------3-------7-------2------5------3----7-7-7-7-7-7-----|
 ---2--------5-------3-------7-------2------5------3----7-7-7-7-7-7-----|
 ---0--------3-------1-------5-------0------3------1----5-5-5-5-5-5-----|

                   \  R I N G O U T /                    palm mute

 Part 3  times                 Part 4
 ------------------------+
 ------------------------+
 ------------------------+     play part 3 but spread the notes out
 --2-2--5-5-5--3-3--7-7--+
 --2-2--5-5-5--3-3--7-7--+
 --0-0--3-3-3--1-1--5-5--+
                                        E    G    F    A
        palm mute


Part 5

-----------------------------------|
-----------------------------------|
------------5555-5--7777-7--5555-5-|
---2222-2---5555-5--7777-7--5555-5-|
---2222-2---3333-3--5555-5--3333-3-|
---0000-0--------------------------|
=============================================================================
THE HUNTER
==========
Note: (G) is a bent note on the third fret, sixth string.

 A
 A  C D  A  D C (2x) w/solo
 D  F E  D  F C      w/solo
 A  C D  A  D C      w/solo
 E  D  C             w/solo
 E  (G)
 A  C D  A  D C (2x)
 D  F E  D  F C
 A  C D  A  D C
 E  D  C
 E  (G)
 A  C D  A  D C (2x) w/solo
 D  F E  D  F C      w/solo
 A  C D  A  D C      w/solo
 E  D  C             w/solo
 E  (G)
 A  C D  A  D C (2x)
 D  F E  D  F C
 A  C D  A  D C
 E  D  C
 E  (G)
 A  C D  A  D C (2x) w/solo
 D  F E  D  F C      w/solo
 A  C D  A  D C      w/solo
 E  D  C             w/solo
 E

=============================================================================
  	 Evil Thing Tab by Danzig, www.Ultimate-Guitar.Com

#----------------------------------PLEASE NOTE---------------------------------#
#This file is the author's own work and represents their interpretation of the #
#song. You may only use this file for private study, scholarship, or research. #
#------------------------------------------------------------------------------##
From: Burning.Inside@f929.n273.z1.fidonet.org (Burning Inside)
Date: 24 Sep 95 21:20:28 -0400
Subject: TAB: "Evil Thing" by Danzig

Evil Thing      by Danzig
                from the album "Danzig"
                music by Glenn Danzig
                tabbed by Tom Mallon

PH= pinch harmonic
*= harmonic
^= bend
 slide

INTRO
                        2x             PH
E |-----------------------|----------------------------------------------|
B |-----------------------|----------------------------------------------|
G |.---------------------.|----------------------------------------------|
D |.---------------------.|----------------------------------------------|
A |-----------------------|----------------------------------------------|
E |--3----6-3---6^--3-6---|--3----6-3--6^--6---------3----6-3--6^--3-6---|
                half-bend              full

FILL ONE
      A5   G5   E5
E |------------------|
B |------------------|
G |------------------|
D |---7----5----2----|
A |---7----5----2----|
E |---5----3----0----|

FILL TWO
E |-------------|
B |-------------|
G |---7--/--9---|
D |---7--/--9---|
A |---5--/--7---|
E |-------------|

RIFF A
E |-----------------------------------------|
B |-----------------------------------------|
G |-----------------------------------------|
D |-----------------------------------------|
A |-----------------------------------5-4---|
E |---0---3-0--5-0------0---3-0--5-0--------|

RIFF B
E |-----------------------------------------|
B |-----------------------------------------|
G |-----------------------------------------|
D |--------------------------------3--2-----|
A |----------1---------1----3---------------|
E |---3-3-3----3-3---3----3----3------------|

RIFF C
E |---------------------------------------------|
B |---------------------------------------------|
G |---------------------------------------------|
D |--2------------5-------7--------7--------7---|
A |--2------------5-------7--------7--------7---|
E |--0------------3-------5--5--5--5--5--5--5---|
                             *  *     * *

OUTRO                   2x             PH
E |-----------------------|----------------------------------------------|
B |-----------------------|----------------------------------------------|
G |.---------------------.|----------------------------------------------|
D |.---------------------.|----------------------------------------------|
A |-----------------------|----------------------------------------------|
E |--0----3-0---3^--0--3--|--0----3-0--3^--3-----------------------------|
                half                   full

-Songflow-
Intro
Fill One
Fill Two
Riff A 8x
Riff B 4x
Riff A 4x
Riff B 4x
Fill One
Riff C 3x
Riff D
Riff A 4x
Riff B 4x
Fill One
Riff C 3x
Riff D


=============================================================================
=============================================================================
Tap to rate this tab
# A B C D E F G H I J K L M N O P Q R S T U V W X Y Z