Guitaretab - guitar tabs
Song name
# A B C D E F G H I J K L M N O P Q R S T U V W X Y Z

Danzig - Danzig Ii Lucifuge tab

This is not my work, credit goes to the hard work put in by the people who tabbed these.
===============================================================================
Danzig  Long Way Back From Hell!

Glenn again! With the epic number! Contact me at: rattlehead.coolio@hotmail.com

Tablature Legend:

h     - hammer-on 
p     - pull-off
t     - tremolo
d     - dive-bomb
PM|-| - Palm mute
~     - vibrato
?(?)  - bend (to what is in the brackets)  
/     - slide up
\     - slide down

Intro:

e|-----------------|-----------------|-14~~~~~~~~~~~~~~~~~~~~~~~~~~~-|
B|-----------------|-----------------|-------------------------------|
G|-----------------|-----------------|-------------------------------|
D|-----------------|-----------------|-------------------------------|
A|-----------------|-----------------|-------------------------------|
E|-7d-----5t~~~~---|-9d-----5t~~~~---|-------------------------------|

e|-------------------------------|-------------------------------|
B|-------------------------------|-------------------------------|
G|-------------------------------|-------------------------------|
D|-------------------------------|-------------------------------|
A|-------------------------------|-------------------------------|
E|-9(10)-(10)-(10)-(10)--7d------|-9(10)-(10)-(10)-(10)--7d------|

e|-------------------------------|------------------------------------------------------|
B|-------------------------------|------------------------------------------------------|
G|-------------------------------|-------------------------7-9(11)9(11)-9(11)-9p7---7~-|
D|-------------------------------|-----------------------9-------------------------9----|
A|-------------------------------|------------------------------------------------------|
E|-9(10)-(10)-(10)-(10)--7d------|-9(10)-(10)-(10)-(10)---------------------------------|

Verse I:
                                                      (x3)
e|---------------------------|---------------------------|
B|---------------------------|---------------------------|
G|---------------------------|---------------------------|
D|-----10\9-------10\9-------|-----10\9-------10\9-------|
A|-9---8-\7---9---8-\7---10--|-9---8-\7---9---8-\7---10--|
E|-7----------7----------8---|-7----------7----------8---|

Chorus I:

e|-------------------|-------------------|---------------|------------------------------|
B|-------------------|-------------------|---------------|------------------------------|
G|-------------------|-------------------|---------------|-----------------9(11)9(11)--|
D|-------------------|-------------------|---------------|------------------------------|
A|-9--------7--------|-9--------7--------|-5---7---9-----|-5---7------------------------|
E|-7--------5--------|-7--------5--------|-3---5---7-----|-3---5------------------------|

Verse II: (same as Verse I)

Chorus II: (same as Chorus I)

Solo:

e|-----------------------------------------------------------------------------|
B|-----------------------------------------------------------------------------|
G|-9(11)~-9(11)~-9(11)~-9(11)~-9(11)~-9(11)~-9(11)~-9(11)~--9(11)(9)p7-9p8p7---|
D|---------------------------------------------------------------------------9-|
A|-----------------------------------------------------------------------------|
E|-----------------------------------------------------------------------------|

e|--------------------------------|-/15-15\-/17-17\--/15-15\-/17-17\-|
B|-9(11)(9)p7---------------------|-/15-15\-/17-17\--/15-15\-/17-17\-|
G|-9(11)(9)p7-9-7---7-------------|----------------------------------|
D|----------------9---9p8p7---7---|----------------------------------|
A|--------------------------9-----|----------------------------------|
E|------------------------------7-|----------------------------------|

e|-10-13-12-10-13-12-10-13-12-10-13-12-10-13(15)(13)p10-----|
B|------------------------------------------------------12\-|
G|----------------------------------------------------------|
D|----------------------------------------------------------|
A|----------------------------------------------------------|
E|----------------------------------------------------------|

e|-------------------------------------------------17(19)~-17p14-17(19)-(19)-(19)-|
B|-------------------------------15-14-12-17-15-14--------------------------------|
G|----------------------15-14-12--------------------------------------------------|
D|-------------15-14-12-----------------------------------------------------------|
A|-15-15-14-12--------------------------------------------------------------------|
E|--------------------------------------------------------------------------------|

e|-22(24)p17-19~\-|-/20-22-24(26)-24(26)-24(26)-(26)-(26)-(26)-(26)-(26)-|
B|----------------|------------------------------------------------------|
G|----------------|------------------------------------------------------|
D|----------------|------------------------------------------------------|
A|----------------|------------------------------------------------------|
E|----------------|------------------------------------------------------|

e|-19-22p21p19----19~-|--------------------------------|
B|-------------22-----|-10(12)-10--9--7----------------|
G|--------------------|------------------9--7----------|
D|--------------------|------------------------9~~~~~~-|
A|--------------------|--------------------------------|
E|--------------------|--------------------------------|

Chorus III: (last note of the solo is the first note of this Chorus)

e|-------------|-10d-------------------|-----------------------|-10d------|
B|-------------|-----------------------|-----------------------|-10d------|
G|-------------|-----------------------|-----------------------|----------|
D|-7~~~~~~~~---|-----------7~~~~~~~~---|-9d--------7~~~~~~~~---|----------|
A|-------------|-----------------------|-----------------------|----------|
E|-------------|-----------------------|-----------------------|----------|

e|--------------------------------|
B|--------------------------------|
G|---7-9(11)9(11)-9(11)-9p7---7~-|
D|-9-------------------------9----|
A|--------------------------------|
E|--------------------------------|

Verse III: (same as Verse I except for this added solo near the start)

e|---------------------------------------|
B|-9(11)(9)p7-9(11)(9)p7-----------------|
G|-9(11)(9)p7-9(11)(9)p7---7~------------|
D|-----------------------9----9p7---7-9~-|
A|--------------------------------9------|
E|---------------------------------------|

Chorus IV:

e|-------------------|-------------------|
B|-------------------|-------------------|
G|-------------------|-------------------|
D|-------------------|-------------------|
A|-9--------7--------|-9--------7--------|
E|-7--------5--------|-7--------5--------|

                                        (x3)
e|-----------------------------------------|
B|-----------------------------------------|
G|-----------------------------------------|
D|-----------------------------------------|
A|-5---7---------9-------9-------9-------9-|
E|-3---5---7-7-7-7-7-7-7-7-7-7-7-7-7-7-7-7-|
PM        |-----| |-----| |-----| |-----|

Outro:

e|------------------------------------|
B|------------------------------------|
G|------------------------------------|
D|-7-----------9----------------------|
A|-5-----------7----------------------|
E|------------------------------------|

Enjoy!
=============================================================================
SNAKES OF CHRIST
================
transcription: John Christ, Liam Wolfen Cullen, Ryq

  intro/main riff:
E|---------------------------------|---------------------------------|
B|---------------------------------|---------------------------------|
G|---------------------------------|---------------------------------|
D|--ah----ah----ah-----------------|--ah----ah----ah---------7--/x\--|
A|---7~----6~----5~----------------|---7~----6~----5~--------7--/x\--|
E+-5-----5-----5-----5-8---5---8p5-|-5-----5-----5-----5-8---5--/x\--+
 |                                                                   |
 |                                                                   |
G+---------------------------------|---------------------------------+
D|---------------------------------|---------------------------------|
A|---------------------------------|---------------------------------|
E|-5-5-5-5-5-5-5-5-5-5-5-5-5-5-5-5-|-5-5-5-5-5-5-5-5-5-5-5-5-5-5-5-5-|


  Verse 1:
E|---------------------------------|-------------------5-------------|
B|---5---------------4-------------|---3---------------5-------------|
G|---2---------------2-------------|---2---------------2-------------|
D|---5---------------5-------------|---5---------------2-------------|
A|-0---------------0---------------|-0---------------0---------------|
E+---------------------------------|---------------------------------+
 |                                                                   |
 |                                                                   |
G+---------------------------------|---------------------------------+
D|---------------------------------|---------------------------------|
A|---------------------------------|---------------------------------|
E|-5-5-5-5-5-5-5-5-5-5-5-5-5-5-5-5-|-5-5-5-5-5-5-5-5-5-5-5-5-5-5-5-5-|


  Verse 2:                            chorus riff:
E|---------------------------------| |-------------------|
B|---------------------------------| |-------------------|
G|---------------------------------| |-------------------|
D|-ah------ah------ah----------75--| |-------------------|
A|--7~------6~------5~-------56--75| |-----7-6---7-6-5---|
E|-5-------5-------5-------58------| |-5-------5-------8-|


  Bridge 1:                           bridge 2:
E|---------------------------------| |--------------------------------|
B|---------------------------------| |--------------------------------|
G|---------------------------------| |--------------------------------|
D|---------------------------------| |--------------------------------|
A|---4~----3~----2~----------------| |---5~----4~----3~---------------|
E|-2-----2-----2-----2-5---2---5p2-| |-3-----3-----3-----3-6---3--6p3-|

Notes:  The bass plays an A pedal tone during the riffs and verses, then
        Follows the basic chords during the chorus.  During the bridge/solo 
        Section, the bass plays a figure yet to be transcribed.  Although 
        Transcribed at the fifth fret, this song can also be played using 
        The open A string.

=============================================================================
  	 Killer Wolf Tab by Danzig, www.Ultimate-Guitar.Com

KILLER WOLF
===========
transcription: Ryq
solo tab:      Liam Wolfen Cullen

Note: This song is played with triplet eights, giving the song a 
      shuffling rhythm.

  verse riff:
E|---------------------------------|---------------------------------|
B|---------------------------------|---------------------------------|
G|-0---0---3--2----0---0---3--2----|-0---0---3--2----3---------------|
D|-0---0---0--0----0---0---0--0----|-0---0---0--0----3-------5-------|
A|---------------------------------|-----------------1-------5-------|
E+---------------------------------|-------------------------3-------+
 | pm-->           pm-->             pm-->                           |
 |                                                                   |
G+---------------------------------|---------------------------------+
D|---------------------------------|---------------------------------|
A|---------------------------------|-----------------1---------------|
E|-3---3---3---3---3---3---3---3---|-3---3---3---3-----------3-------|


  bass riff during solo:
G|---------------------------------|---------------------------------|
D|---------------------------------|---------------------------------|
A|-------1-1-----1-1-----1-1-----1-|-------1-1-----1-1---------------|
E|-1-3-3-----3-3-----3-3-----3-3---|-1-3-3-----3-3-----------3-------|


 drums...
 G F A# D (2x)
 verse riff (2x)
 D#
 verse riff (first measure only)
 D#
 G F A# D (2x)
 verse riff (2x)
 D#
 verse riff (first measure only)
 D#
 G F A# D (4x)
 bass riff (2x) w/guitar solo
 D#
 verse riff (first measure only)
 D#
 G F A# D (4x)
 G F A# D (4x)  w/outro solo

  solo:
E|---------------------------------------------------------
B|---------------------------------------------------------
G|---------------------------------------------------------
D|-------5b--7-5-------------------------------------------
A|--5b---5b-----7-6-5-------------------------3-3-5-3-5-3--
E|-------------------8-6-3--3h6h3---3-6-6-3-6--------------

E|----------------------------------------------------------
B|-----------------6-------------------13ah----13ah----13ah-
G|-----------------5b--\3/12-(12)b--12------12------12------
D|--3-3-5-5-3-5-3--------/12--------------------------------
A|----------------------------------------------------------
E|----------------------------------------------------------

E|-------------------------------------------------------------
B|-----13ah----13ah----11ah----11ah----11ah--------------------
G|--12------12------10------10------10----------------8-10-10b-
D|-----------------------------------------------8-10----------
A|-------------------------------------------/10---------------
E|-------------------------------------------------------------

E|------------/15----15----15----15----15----15-----15----13-----
B|------11---3/15-15----15----15----15----15-----15----13-13-----
G|-10b--10b--------------------------------------------------15--
D|---------------------------------------------------------------
A|---------------------------------------------------------------
E|---------------------------------------------------------------

E|--------------------------|
B|--------------------------|
G|--15--17--15--17-/-24~~~--|
D|--------------------------|
A|--------------------------|
E|--------------------------|

  outro solo:
E|------------------------------------|
B|--6---------------------------------|
G|--5b--5p3---------------------------|
D|----------5----5--3-----------------|
A|---------------------5--4--3--------|
E|------------------------------6--3--|
=============================================================================
TIRED OF BEING ALIVE
====================
transcription: Mike Inzerillo, Aaron Pacitti, Liam Wolfen Cullen

Intro:
E|----------------------------------------------------------
B|----------10ah----10ah----10ah------------------------10--
G|--/9b--9b------9b------9b------9b--(9b)h7------7--9b--9b--
D|--------------------------------------9--------7--9b------
A|-------------------------------------------/9-------------
E|----------------------------------------------------------

E|-------------|
B|-------------|
G|--(9b)h7-----|
D|----------9--|
A|-------------|
E|-------------|

Verse:
     A B B B  D  DD  A B B B  E  D   A B B B  D DD  D  A
E|--------------------------------------------------------
B|--------------------------------------------------------
G|------------7--77-----------9--7------------7-77--7-----
D|---7/9-9-9--7--77--7/9-9-9--9--7---7/9-9-9--7-77--7--7--
A|---7/9-9-9--5--55--7/9-9-9--7--5---7/9-9-9--5-55--5--7--
E|---5/7-7-7---------5/7-7-7---------5/7-7-7--------5--5--

Chorus:
     F#  G   D   A     B   G   D   F# 
E|-----------------------------------------
B|-----------------------------------------
G|-----------7---------4-------7-----------
D|---4---5---7---7-----4---5---7---4-------
A|---4---5---5---7-----2---5---5---4-------
E|---2---3-------5---------3-------2-------

-songflow-
 Intro 
 Verse  (6x)
 Chorus (2x)
 Verse  (6x)
 Chorus (2x)
 Verse  (4x) w/solo
 Chorus (2x)
 Verse  (2x)
 Verse  (4x; faster)
 B

=============================================================================
Im The One Tab by Danzig, www.Ultimate-Guitar.Com

#----------------------------------PLEASE NOTE---------------------------------#
#This file is the author's own work and represents their interpretation of the #
#song. You may only use this file for private study, scholarship, or research. #
#------------------------------------------------------------------------------##
                                  I'M THE ONE
                                  -----------
                             As recorded by Danzig
                       From the album Danzig II Lucifuge


Written by Glenn Danzig
Tab by Robert Flemming (rflemmin@ced.berkeley.edu)

SongFlow
--------
Intro
Figure 1 (2x)
Figure 2
Figure 1
Figure 3
-----------
Figure 1 (3x)
Figure 2
Figure 1
Figure 3 (repeat)
---------------
Figure 4
Figure 3
-----------
Figure 1 (3x)
Figure 2
Figure 1
Figure 3 (repeat)
---------------
Figure 4
Figure 3
Outro


Intro
e+-------------------------------------------------+-R-+
B+--1/3--3-----------------------------------------+-E-+
G+--2/4--4--2--2-----------------------------------+-P-+
D+----------2--2--------2--2--------2--2--------2--+-E-+
A+----------0--0--------2--2--------2--2--------2--+-A-+
E+----------------3--3--0--0--3--3--0--0--3--3--0--+-T-+


Intro (continued)
e+-------------------------------------------------+
B+--1/3--3-----------------------------------------+
G+--2/4--4--2--2--------2--2--------2--2--------2--+
D+----------2--2--------2--2--------2--2--------2--+
A+----------0--0--------0--0--3--3--0--0--3--3--0--+
E+----------------3--3-----------------------------+


Intro (continued)
e+-------------------------------------------------+
B+--1/3--3-----------------------------------------+
G+--2/4--4--2--2-----------------------------------+
D+----------2--2--------2--2--------2--2--------2--+
A+----------0--0--------2--2--------2--2--------2--+
E+----------------3--3--0--0--3--3--0--0--3--3--0--+


Intro (continued)
e+----------------------+
B+--1/3--3--------------+
G+--2/4--4--2--2--------+
D+----------2--2--------+
A+----------0--0--------+
E+----------------3--0--+


Intro (continued)
e+---------------------------------------------+
B+--3/4--4-4--3/4--4-4--3/4--4-4--3/4--4-4--2--+
G+--3/4--4-4--3/4--4-4--3/4--4-4--3/4--4-4--2--+
D+--3/4--4-4--3/4--4-4--3/4--4-4--3/4--4-4--2--+
A+--1/2--2-2--1/2--2-2--1/2--2-2--1/2--2-2--0--+
E+---------------------------------------------+


Intro (continued)
e+-------------------------------------------------+
B+--1/3--3-----------------------------------------+
G+--2/4--4--2--2-----------------------------------+
D+----------2--2--------2--2--------2--2--------2--+
A+----------0--0--------2--2--------2--2--------2--+
E+----------------3--3--0--0--3--3--0--0--3--3--0--+



Figure 1
e+-------------------------+
B+--1/3--3-----------------+
G+--2/4--4--2--2-----------+
D+----------2--2--------2--+
A+----------0--0--------2--+
E+----------------3--3--0--+


Figure 2
e+-----------------------------+
B+-----------------------------+
G+--2--2--------2--2--------2--+
D+--2--2--------2--2--------2--+
A+--0--0--3--3--0--0--3--3--0--+
E+-----------------------------+


Figure 3
e+---------------------------------------------+
B+--3/4--4-4--3/4--4-4--3/4--4-4--3/4--4-4--2--+
G+--3/4--4-4--3/4--4-4--3/4--4-4--3/4--4-4--2--+
D+--3/4--4-4--3/4--4-4--3/4--4-4--3/4--4-4--2--+
A+--1/2--2-2--1/2--2-2--1/2--2-2--1/2--2-2--0--+
E+---------------------------------------------+

Figure 4
e+--------------------------------------------------+-R-+-R-+-R-+
B+--------------------------------------------------+-E-+-E-+-E-+
G+--------------------------------------------------+-P-+-P-+-P-+
D+--2--2--------2--2--------2--2--------2--2--------+-E-+-E-+-E-+
A+--2--2--------2--2--------2--2--------2--2--------+-A-+-A-+-A-+
E+--0--0--3--3--0--0--3--3--0--0--3--3--0--0--3--3--+-T-+-T-+-T-+


Figure 4 (continued)
e+--------------------------------------------------+
B+--------------------------------------------------+
G+--2--2--------2--2--------2--2--------2--2--------+
D+--2--2--------2--2--------2--2--------2--2--------+
A+--0--0--3--3--0--0--3--3--0--0--3--3--0--0--3--3--+
E+--------------------------------------------------+

[ Tab from: http://www.guitaretab.com/d/danzig/109139.html ]
Figure 4 (continued)
e+--------------------------------------------------+
B+--------------------------------------------------+
G+--------------------------------------------------+
D+--2--2--------2--2--------2--2--------2--2--------+
A+--2--2--------2--2--------2--2--------2--2--------+
E+--0--0--3--3--0--0--3--3--0--0--3--3--0--0--3--0--+


Outro
e+----------------------+
B+--1/3--3--------------+
G+--2/4--4--2--2--------+
D+----------2--2--------+
A+----------0--0--------+
E+----------------3--0--+


Outro (continued)
e+----------------------------------------------------+
B+--3/4--4-4--3/4--4-4--3/4--4-4--3/4--2--------9--7--+
G+--3/4--4-4--3/4--4-4--3/4--4-4--3/4--2--------9--7--+
D+--3/4--4-4--3/4--4-4--3/4--4-4--3/4--2-----2--9--7--+
A+--1/2--2-2--1/2--2-2--1/2--2-2--1/2--0-----2--7--5--+
E+----------------------------------------3--0--------+

=============================================================================
  	 Her Black Wings Tab by Danzig, www.Ultimate-Guitar.Com

#----------------------------------PLEASE NOTE---------------------------------#
#This file is the author's own work and represents their interpretation of the #
#song. You may only use this file for private study, scholarship, or research. #
#------------------------------------------------------------------------------##
From: cschmidt@uoguelph.ca (Craig M Schmidt)

Some people have asked for some Danzig recently, and I think it's a 
tragedy that this song hasn't been available.  It's easy, but it's cool...


			   DANZIG-HER BLACK WINGS
		          From Danzig II-Lucifuge

INTRO:

   PM..............................
|----------------------------------|
|----------------------------------|
|----------------------------------|
|----------------------------------|
|----------------------------------|
|--2-2-0-1-2-2-0-1-2-2-0-1-2-2-0-1-|

  PM.............                 PM..............    vib    AH sl
 Enter Oblivion...
|-----------------------------------------------------------------|
|-----------------------------------------------------------------|
|-------------------4--------2------------------------------------|
|-------------------4--------2------------------------------------|
|-------------------2--------0-------------------------------3\\\-|
|-2-2-0-1-2-2-0-1---2--------0-----2-2-0-1-2-2-0-1-2-5~~~~2-------|

  PM..................                    PM...                     PM..

 Unclean She is......                 And She Comes Down... 
|---------------------------------------------------------------------------|
|---------------------------------------------------------------------------|
|---------------------4------2----------------------------------------------|
|---------------------4------2------9---9-------9--------9---7---7-------7--|
|---------------------2------0------9---9-------9--------9---7---7-------7--|
|---2-2-0-1-2-2-0-1---2------0------7---7--7--7-7--------7---5---5--5--5-5--|

           PM...        sl              NH  
     And She Offers.. 
|-----------------------------------------------|
|-----------------------------------------------|
|-------------------------7----7----------------|
|--9----9-------9------9\\7----7--7--7--4-------|
|--9----9-------9------7\\5----5--5--5--4-------|
|--7----7--7--7-7------7\\5---------------------|


 Oh...
 PM..         1/2   p                 p                     1/2  p
|--------------------------------------------------------------------|
|--------------------------------------------------------------------|
|------------------------------4-------------------------------------|
|-------------------------4----4-------------------------------------|
|-------------------------5----2-------------------------------------|
|-2-----4----4BR---2^0----5----------5^4~~~~--2-------4-----4BR--2^0-|


 Her Black...
                     sl
|----------------------------|
|----------------------------|
|---------------4------------|
|---------------4---7\\\-----|
|-5-------------2---7\\\-----|
|-5-------------2---5\\\-----|

   PM.............                     PM............
|--------------------------------------------------------------|
|--------------------------------------------------------------|
|-------------------------------------------------------4----2-|
|-------------------------------------------------------4----2-|
|----------------------------3^2^0----------------------2----0-|
|--2-2-0-1-2-2-0-1-2-5~~~2~~~----------2-2-0-1-2-2-0-1--2----0-|


Repeat as Necessary


Craig

=============================================================================
  	 Devils Plaything Tab by Danzig, www.Ultimate-Guitar.Com

DEVIL'S PLAYTHING
=================
transcription: Jason Kessler, Ryq

Note: The acoustic guitar used in the intro sounds one quarter-step
      higher than standard tuning.

  intro:
E|-------------------------|-------------------------|
B|-------17-------17-------|-------15-------17-------|
G|----16-------16-------16-|----14-------16-------16-|
D|-14-------14-------14----|-12-------14-------14----|
A|-------------------------|-------------------------|
E|-------------------------|-------------------------|

  intro fill:
E|-------------------------|-15-14-------------------|
B|-------17-------17-------|-------15-17----17-------|
G|----16-------16-------16-|-------------16-------16-|
D|-14-------14-------14----|-------------------14----|
A|-------------------------|-------------------------|
E|-------------------------|-------------------------|

Note:  During the second and third verses ("E  C  A  E  E  C  F#  G  E"),
       the bass plays a E pedal tone (3rd string, 7th fret).

-songflow-
 intro riff (2x)
 intro riff (4x)
 intro fill
 intro riff
 intro riff (4x)
 E  C  D  E (4x)
 E  C  A  E  E  C  F#  G  E (2x)
 E  C  D  E (4x)
 E  C  A  E  E  C  F#  G  E (2x)
 intro riff (2x)                  (bass plays E  D E)
 intro riff (4x)  w/ "oh"s        (bass plays E  C  D  E)
 E  C  A  E  E  C  F#  G  E (2x)
 E  C  D  E (4x)
 E  C  D  E (4x)  w/ "oh"s
 E  C  D  E (4x)  w/ "oh"s and lead vocal


777
===
transcription: Liam Wolfen Cullen, Ryq

Note: There are two guitars on this track: an electric and an acoustic.
      They double each other, although not exactly.
      
  verse riff:
E|-----------------|-----------------|-----------------|-------------------|
B|-----------------|-----------------|-----------------|--3----------------|
G|-----------------|-----------------|-----------------|-------------------|
D|-----2-2---2-2-2-|-----2-2---2-2-2-|-----2-2---2-2-2-|-(2)---3-2---2-2-2-|
A|-----2-2---2-2-2-|-----2-2---2-2-2-|-----2-2---2-2-2-|-(2)-2---2---2-2-2-|
E|-3^--0-0---0-0-0-|-3^--0-0---0-0-0-|-3^--0-0---0-0-0-|-(0)-----0---0-0-0-|


  verse end:
E|-----------------|-----------------|-----------------|-------------------|
B|-----------------|-----------------|-----------------|--3----------------|
G|-----------------|-----------------|-----------------|-------------------|
D|-----2-2---2-2-2-|-----2-2---2-2-2-|-----2-2---2-2-2-|-(2)---3-2---------|
A|-----2-2---2-2-2-|-----2-2---2-2-2-|-----2-2---2-2-2-|-(2)-2---2---------|
E|-3^--0-0---0-0-0-|-3^--0-0---0-0-0-|-3^--0-0---0-0-0-|-(0)-----0---------|


  chorus riff:
E|------------------|------------------|------------------|-----------------|
B|----/9------------|----/9------------|----/9------------|-----------------|
G|----/9-----12-11--|----/9-----12-11--|----/9-----12-11--|-----------------|
D|----/9-----12-11--|----/9-----12-11--|----/9-----12-11--|-----------------|
A|-----------10--9--|-----------10--9--|-----------10--9--|---2-2-2---------|
E+-0-------0--------|-0-------0--------|-0-------0--------|-3^0-0-0-3-03-03-+
 |         pm                 pm                 pm                         |
 |                                                                          |
G+------------------|------------------|------------------|-----------------+
D|------------------|------------------|------------------|-----------------|
A|-----7\-----------|-----7\-----------|-----7\-----------|-----------------|
E|-0-------0--3--2--|-0-------0--3--2--|-0-------0--3--2--|-3^0-0-0-3-03-03-|


-songflow-
 verse riff  (7x)
 verse end
 chorus riff (7x)
 E
 verse riff  (4x)
 verse end
 chorus riff (9x)
 E
=============================================================================
  	 777 Tab by Danzig, www.Ultimate-Guitar.Com

#----------------------------------PLEASE NOTE---------------------------------#
#This file is the author's own work and represents their interpretation of the #
#song. You may only use this file for private study, scholarship, or research. #
#------------------------------------------------------------------------------##
From: Burning.Inside@f929.n273.z1.fidonet.org (Burning Inside)
Date: 23 Dec 95 00:50:38 -0500
Subject: TAB: "777" by Danzig


From: burning.inside@f929.n273.z1.fidonet.org

777     by Danzig
        from the album "Danzig II: Lucifuge"
        words and music by Glenn Danzig
        tabbed by Tom Mallon
 
There's only two riffs to this song, it's very simple:
 
VERSE
E ---------------------------------------------------------------
B ------------------------------------------------3--------------
G ---------------------------------------------------------------
D -------------------------------------------------------3-2-----
A ---------------------------------------------------------------
E -0-0---0-0-0-3^---0-0---0-0-0-3^---0-0---0-0-0-----0-----------
 
CHORUS
E |------------------|-------------------------------------------
B |------/9----------|-------------------------------------------
G |.-----/9---------.|-------------------------------------------
D |.-----/9---5--4--.|-------------------------------------------
A |-----------5--4---|-------------------------------------------
E |---0-------3--2---|---3^-0-0---0-0-3^-0-3^-0-3^---------------
         *played w/slide
 
That's it. The slide part might not be exactly where John hits it
on the album but it sounds damn close.

=============================================================================
  	 Blood And Tears Tab by Danzig, www.Ultimate-Guitar.Com

#----------------------------------PLEASE NOTE---------------------------------#
#This file is the author's own work and represents their interpretation of the #
#song. You may only use this file for private study, scholarship, or research. #
#------------------------------------------------------------------------------##
                              Blood And Tears
                              ---------------
                           As recorded by Danzig
                     from the album Danzig II Lucifuge

Written by Glenn Danzig
Tab by Robert Flemming (rflemmin@ced.berkeley.edu)

SongFlow
--------
Figure 1 
Fill 1
Figure 1
Fill 2
Figure 2
Figure 1 (5x)
Fill 3
Figure 2
D B G F# (2x)
G G G G
F# F# F# F#
Figure 1
Fill 1
Figure 1 (3x)
Fill 3
Figure 2
D B G F# (4x) 
G G G G 
F# F# F# F# 
Figure 1 (3x)
Fill 3
Figure 2
D B G F# (4x)
G G G G 
F# F# F# F#
G G G G
F#
Figure 1 (2x)
Outro

Figure 1
e+---------------------+---------------------+
B+-----------2h3-------+-----------2h3--2----+
G+--------4-------4----+-------------------2-+
D+-----4-------------4-+--------4------------+
A+--2------------------+-----4---------------+
E+---------------------+--2------------------+


Fill 1
e+---------------------+---+
B+-----------2h3-------+-2-+
G+--------4-------4----+-2-+
D+-----4-------------4-+-4-+
A+--2------------------+-4-+
E+---------------------+-2-+


Fill 2
e+---------------------+-------------------+
B+-----------2h3-------+-------------------+
G+--------4-------4----+-----------2-------+
D+-----4-------------4-+--------4----------+
A+--2------------------+-----4-------------+
E+---------------------+--2-----------2--1-+


Fill 3
e+---------------------+----------------+
B+-----------2h3-------+----------------+
G+--------4-------4----+-----------2--1-+
D+-----4-------------4-+--------4--4--3-+
A+--2------------------+-----4-----4--3-+
E+---------------------+--2--------2--1-+

Figure 2
e+------------------+-------------------+-------------------+----+
B+------------------+-------------------+-------------------+----+
G+----------0-------+-----------2-------+-----------0-------+--2-+
D+-------2-----2----+--------4-----4----+--------2-----2----+--4-+
A+----2-----------2-+-----4-----------4-+-----2-----------2-+--4-+
E+-0----------------+--2----------------+--0----------------+--2-+

Outro
e+---------------------+
B+---------------------+
G+-----------3--5------+
D+--------4------------+
A+-----4-----------(2)-+
E+--2------------------+

                                /|  __  ___   ___  __  |\ 
 ******************************|  --  -^   \_/   ^-  --  |******************   
 * morrigu@uclink.berkeley.edu \       ---_   _---       /                 *
 *              &               ----^\|   _>_<_   |/^----  Robert Flemming *
 *  rflemmin@ced.berkeley.edu        / --- / \ --- \                       *
 ************************************\__/| -^- |\__/************************
                                         \ MMM /
                            


=============================================================================
Girl Tab by Danzig, www.Ultimate-Guitar.Com

#----------------------------------PLEASE NOTE---------------------------------#
#This file is the author's own work and represents their interpretation of the #
#song. You may only use this file for private study, scholarship, or research. #
#------------------------------------------------------------------------------#

Date: Sun, 14 Dec 1997 14:24:37 -0500
From: Tom Mallon <tsmallon@mailbox.syr.edu>
Subject: TAB: "Girl" by Danzig (Correction)


                                   GIRL
                                by Danzig
                           from Danzig II- Lucifuge
                            tabbed by Tom Mallon

Notation
        ^ = bend half step
       ^r = bend full step and release
      /\/ = vibrato

INTRO

E |-----------------------------------------------------------------------|
B |-----------------------------------------------------------------------|
G |.------------7---12--------------7---12-----------------5---7---7-----.|
D |.--2----7----7---12----2----7----7---12----2-------2----5---7---5---2-.|
A |---2----7----5---10----2----7----5---10----2-------2----3---5-------2--|
E |---0----5--------------0----5--------------0---3^--0----------------0--|


VERSE

E |-------------------------|-------------------------------------------|
B |-------------------------|-------------------------------------------|
G |.-------5-------7-------.|-------------------------------------------|
D |.--2----5-------7-------.|--2--------2-------------------------------|
A |---2----3---0---5--------|--2--------2-------------------------------|
E |---0-----------------3^--|--0---3^---0-------------------------------|

PRE-CHORUS
    PM- - - - - - - - - -|
E |-------------------------------------------|
B |-------------------------------------------|
G |---4--4--4--4--4--4--4--4--4--4--4--4--4---|
D |---4--4--4--4--4--4--4--4--4--4--4--4--4---|
A |---2--2--2--2--2--2--2--2--2--2--2--2--2---|
E |-------------------------------------------|

CHORUS
                    PM    PM
E |---------------------------------------------------------------------|
B |---------------------------------------------------------------------|
G |----------7--12-----9-----9-----------7---12-----------------------|
D |--2---7---7--12-----9-----9-------7---7---12--2---5---2------------|
A |--2---7---5--10-----7-----7-------7---5---10--2---5---2------------|
E |--0---5----------0-----0----------5-----------0---3---0------------|

BRIDGE/SOLO

E |-------------------------------------------------------|
B |-------------------------------------------------------|
G |----------------5----7--------5---7---7^r---5----------|
D |-------------------------------------------------7-----|
A |-------------------------------------------------------|
E |----5---5---5-------------5----------------------------|
                                 /\/
E |-------------------------------------------------------|
B |-------------------------------------------------------|
G |----------------5----7---------------------------------|
D |--------------------------0---7----0--6--5--3--0-------|
A |-------------------------------------------------------|
E |----5---5---5------------------------------------------|

E |-------------------------------------------------------|
B |-------------------------------------------------------|
G |----------------5----7--------5---7---7^r----5---------|
D |--------------------------------------------------7----|
A |-------------------------------------------------------|
E |----5---5---5-------------5----------------------------|

E |-------------------------------------------------------|
B |-------------------------------------------------------|
G |----------------5----7-------??????????????????????----|
D |-----------------------------??????????????????????----|
A |-------------------------------------------------------|
E |----5---5---5------------------------------------------|

E |-------------------------------------------------------|
B |-------------------------------------------------------|
G |----------------7----9--------7---9---9^r----7---------|
D |---------------------------------------------------9---|
A |-------------------------------------------------------|
E |----7---7---7------------7-----------------------------|

E |-------------------------------------------------------|
B |-------------------------------------------------------|
G |----------------7----9-------???????????????????????---|
D |-----------------------------???????????????????????---|
A |-------------------------------------------------------|
E |----7---7---7------------7-----------------------------|

Songflow:

   INTRO, VERSE, CHORUS, VERSE, CHORUS, BRIDGE, CHORUS, BRIDGE, CHORUS

This is a slightly corrected version, the one that has been up for
a while had some chord errors that needed to be changed. It's still
not totally complete, but it's enough to figure out the song on.

tsmallon@syr.edu
=============================================================================
Pain In The World Tab by Danzig, www.Ultimate-Guitar.Com

#----------------------------------PLEASE NOTE---------------------------------#
#This file is the author's own work and represents their interpretation of the #
#song. You may only use this file for private study, scholarship, or research. #
#------------------------------------------------------------------------------##
                              PAIN IN THE WORLD
                                  by Danzig
                          from Danzig II- Lucifuge
                            tabbed by Tom Mallon

INTRO
    

     /\/          /\/       /\/          /\/
E |-----------------------------------------------------------|
B |-----------------------------------------------------------|
G |-----------------------------------------------------------| Guitar I
D |-----------------------------------------------------------|
A |-------7---6--------------------------8--------------------|
E |--5------------6---3--/--5----8---7------------------------|

     /\/
E |-----------------------------------------------------------|
B |-----------------------------------------------------------|
G |------9---8------------------------------------------------|
D |--7-----------8--------------------------------------------|
A |-----------------------------------------------------------|
E |-----------------------------------------------------------|

PRECHORUS
      PM- - - - - - - - - - - - - - - - - -|
E |-----------------------------------------------------------|
B |-----------------------------------------------------------|
D |--------------9--9--9--8--8--8-----------------------------|
G |----7--7--7---9--9--9--8--8--8--8--8--8--------------------|
A |----7--7--7---7--7--7--6--6--6--8--8--8--------------------|
E |----5--5--5---------------------6--6--6--------------------|

CHORUS (PLAY INTRO)

OUTRO

E |-----------------------------------------------------------|
B |-----------------------------------------------------------|
D |-------------------5--------------------7-\-5--------------|
G |-------------------5--------------------7-\-5--------------|
A |-0-0-0-0----0-0-0--3---0-0-0-0---0-0-0--5-\-3--------------|
E |-----------------------------------------------------------|

Anyone who can figure out the solo, please post it.

Related for Danzig Ii Lucifuge tab