Song name
# A B C D E F G H I J K L M N O P Q R S T U V W X Y Z

Danzig - Danzig Iii How The Gods Kill tab

This is not my work, I just compiled the best tabs on the site to make up the album, 
goes to those who did the work.
===============================================================================
  	 Godless Tab by Danzig, www.Ultimate-Guitar.Com

-------------------------------------------------------------------------------
			 Godless-Danzig
-------------------------------------------------------------------------------
Tabbed by: Trephination74
Email:

Tuning: Tune a half step down


From Danzig 3 "How The Gods Kill" Heres The Chord Structure For Godless
It's Pretty Basic Stuff But The Timing Can Be A Little Tricky
Pay Attention to the CD and it should be no problem


    Riff 1

    Pick Scrape             Play 6 times then play part 2
e|---------------------------------------------------------------------------|
B|---------------------------------------------------------------------------|
G|---------------------------------------------------------------------------|
D|----------------10H12----12--12-12-12--10H12----12--12-12-12---------------|
A|--/---/---------10-------10--10-10-10--10-10----10--10-10-10---------------|
E|--/---/--------------------------------------------------------------------|


   Riff 2        Dive the 2 notes with bar
e|------------3--------------------------------------------------------------|
B|------------3--------------------------------------------------------------|
G|---------------------------------------------------------------------------|
D|---------------------------------------------------------------------------|
A|----0----------------------------------------------------------------------|
E|---------------------------------------------------------------------------|


   Riff 3                         Repeat 8 Times
e|---------------------------------------------------------------------------|
B|---------------------------------------------------------------------------|
G|---------------------------------------------------------------------------|
D|-----7H9-9-9-9-9------7H9-9-9-9-9------7H9-9-9-9-9------12--12-12-12-------|
A|-----7---7-7-7-7------7---7-7-7-7------7---7-7-7-7------10--10-10-10-------|
E|---------------------------------------------------------------------------|

                  With Bar
  Riff 4          ~~~~~~~~        Slide        Play 4 Times
e|---------------------------------------------------------------------------|
B|---------------------------------------------------------------------------|
G|--12--------12------------------3\\\\\8------------------------------------|
D|--12------12--------------------3\\\\\8------------------------------------|
A|--10-----------------------------------------------------------------------|
E|---------------------------------------------------------------------------|

                                            This is probably done with a bar
  Riff 5                                Pre-Bend note at 7th fret and release
e|---------------------------------------------------------------------------|
B|---------------------------------------------------------------------------|
G|---------------------------------------------------------------------------|
D|--2---------------2---------------2--------------------7B9---9R7-----------|
A|--2---------------2---------------2----------------------------------------|
E|--0---------------0---------------0----------------------------------------|


   Riff 6
e|---------------------------------------------------------------------------|
B|---------------------------------------------------------------------------|
G|---------------------------------------------------------------------------|
D|------7H9-9-9-9-9----------------------------------------------------------|
A|------7---7-7-7-7----------------------------------------------------------|
E|---------------------------------------------------------------------------|

Spoken Intro Played With Riff 5

Godless feeling in me
Night after night
Whoa, godless feeling in me
Born of their lies
Oh, oh, yea

Break
Play Riff 6, 7 Times

Verse Played With Riff 3

You gave me all of this and more, yea, that's for sure
I can't believe in all your pain
Under the draining of a Christian diety's blood
You tell your children they're insane, yea


Chorus Played with Riff 4

I couldn't love it anymore
I had to listen to my heart
I couldn't take it anymore
And so you leave me godless


Solo Break Backed by Riff 3

Second Verse Continues With Riff 3

Just spread your tentacles of hate around my life
I've taken more than you could ever give
You can't believe that someone challenges your right
I'm gonna send you back your pain

Second Chorus With Riff 4

Yea
I couldn't love it anymore
I had to listen to my heart
I couldn't take it anymore
And so you leave me godless

Second Spoken Part
 Played with Riff 5

I ask all who have gathered here
To join me
In this feast
May we always be strong in body
Spirit
And mind
And all those
Who would try
To harm us
Let them be cast aside
Oh


| /  slide up
| \  slide down
| h  hammer-on
| p  pull-off
| ~  vibrato
| +  harmonic
| x  Mute note
===============================================================================
ANYTHING

"Anything you want....Anything the..."

E-------------------|
B-------------------|
G------3-----1----1-|
D----3---3-----3----| X4
A--1-------1--------|
E-------------------|


"World has to offer....."

E--------------------|
B----------------4\--|
G------6---6---6-----|
D----6---6---6-------|
A--4-----------------|
E--------------------|

"And its freedom...."

E----------------------------------|
B----------------------------------|
G----------------------------------|
D------6----6-----------6----6-----|
A----6----6-----6-----6----6-----6-|
E--4----4-----4-----4----4-----4---|

"...in my arms"

E-------------------|
B-------------------|
G------3-----1----1-|
D----3---3-----3----| X2
A--1-------1--------|
E-------------------|

"And its freedom...."

E----------------------------------|
B----------------------------------|
G----------------------------------|
D------6----6-----------6----6-----|
A----6----6-----6-----6----6-----6-|
E--4----4-----4-----4----4-----4---|

"In my arms."

E------------------------------------|
B------------------------------------|
G------3-----3-----------------------|
D----3-----3-----3-----4-----6-------|
A--1-----1-----1-----4-----6---6---0-|
E------------------2-----4-----------|

"In my arms."

E------------------------------------|
B------------------------------------|
G------3-----3-----------------------|
D----3-----3-----3-----4-----6-------|
A--1-----1-----1-----4-----6---6---0-|
E------------------2-----4-----------|

"In my arms."

E------------------------------------|
B------------------------------------|
G------3-----3-----------------------|
D----3-----3-----3-----4-----6-------|
A--1-----1-----1-----4-----6---6---0-|
E------------------2-----4-----------|

"In my arms, YEAH!!"

E---------------------------------|
B---------------------------------|
G------3-----3--------------------|
D----3-----3-----3---4--6---------|
A--1-----1-----1-----4--6---------|
E--------------------2--4---------|
                     (distortion)

(distortion)

"Anytyhing you want....anything this.."

E-------------------|
B-------------------|
G------3-----1----1-|
D----3---3-----3----| X3
A--1-------1--------|
E-------------------|

"world has to offer.."

E----------|
B----------|
G--6-5--6--|
D--6-5--6--|
A--4-3--4\-|
E----------|

"And its freedom..."

E------------|
B------------|
G------------|
D------------|
A--6-------6-|
E--4-------4-|

"in my arms.."

E-------------------|
B-------------------|
G------3-----1----1-|
D----3---3-----3----| X2
A--1-------1--------|
E-------------------|
  Pm>>>>>>>>>>>>>>>

"All its freedom..."

E------------|
B------------|
G------------|
D------------|
A--6-------6-|
E--4-------4-|

"in My!!!!"

E-------------------|
B-------------------|
G-------------------|
D-------------------|
A--3-3-3-3-3-3-3--3-|
E--1-1-1-1-1-1-1--1-|
   PM>>>>>>>>>>>

"In my arms."

E------------------------------------|
B------------------------------------|
G------3-----3-----------------------|
D----3-----3-----3-----4-----6-------| X3
A--1-----1-----1-----4-----6---6---0-|
E------------------2-----4-----------|

E---------------------------------|
B---------------------------------|
G------3-----3--------------------|
D----3-----3-----3---4--6---------|
A--1-----1-----1-----4--6---------|
E--------------------2--4---------|

(No Distortion)

"Anything you want its in My arms"

E------------------------------------|
B------------------------------------|
G------3-----3-----------------------|
D----3-----3-----3-----4-----6-------|
A--1-----1-----1-----4-----6---6---0-|
E------------------2-----4-----------|

"Anything you need its in my arms"

E------------------------------------|
B------------------------------------|
G------3-----3-----------------------|
D----3-----3-----3-----4-----6-------|
A--1-----1-----1-----4-----6---6---0-|
E------------------2-----4-----------|

"Anything you need its In!!"

E---------------------------------|
B---------------------------------|
G------3-----3--------------------|
D----3-----3-----3---4--6---------|
A--1-----1-----1-----4--6---------|
E--------------------2--4---------|
                     (distortion)

(Solo is Transbribed below, The Rhythm During solo is : )

E------------|
B------------|
G------------|
D------------|
A--6-------6-|
E--4-------4-|

E-------------------|
B-------------------|
G------3-----1----1-|
D----3---3-----3----| X2
A--1-------1--------|
E-------------------|
  Pm>>>>>>>>>>>>>>>

at the end of the solo :

E-------------------|
B-------------------|
G-------------------|
D-------------------|
A--3-3-3-3-3-3-3--3-|
E--1-1-1-1-1-1-1--1-|
   PM>>>>>>>>>>>


Solo:

  Full  Full
|-----------------------------------------------------------------|
|--19b---19b--19-19---19p17---------------19--16------------------|
|----------------------------19-17-16-----19--16h17---------------|
|--------------------------------------19-------------------------|
|-----------------------------------------------------------------|
|-----------------------------------------------------------------|

    ~~~~                     Full
|-----------------------------------------------------------------|
|-----------18----19----18---18---18----18------------------------|
|---15---15----15----15------20b-----20----20P18------18h20-------|
|-------------------------------------------------20--------------|
|-----------------------------------------------------------------|
|-----------------------------------------------------------------|

                                   Full        Full
|-----------------------------------------------------------------|
|-----------------------------------------------------------------|
|--20----18----17------------17h18-20b---17h18h20b-(20)h17--------|
|--------------------18---20--------------------------------------|
|-----------------------------------------------------------------|
|-----------------------------------------------------------------|

                                      Full        Full~~~~~~~~~~
|----------------------------------17-19b-(19)p17-19b-------------|
|-------17h19h20---------17h19h20---------------------------------|
|---20-----------17h18h20-----------------------------------------|
|-----------------------------------------------------------------|
|-----------------------------------------------------------------|
|-----------------------------------------------------------------|

                Full         Full                       Full
|---17--19--20--20b-(20)-19--20b-(20)-19--20h19h17------17b-------|
|---------------------------------------------------19------------|
|-----------------------------------------------------------------|
|-----------------------------------------------------------------|
|-----------------------------------------------------------------|
|-----------------------------------------------------------------|

                             Full      Full
|-----------------------------------------------------------------|
|-----------------------------------------------------------------|
|---20--18--17----------17h18-20b--17h18h20-(20)p17---------------|
|---------------18--20--------------------------------------------|
|-----------------------------------------------------------------|
|-----------------------------------------------------------------|

                                   Full          Full~~~~~~~~~~~
|-------------------------------17--19b-(19)p-17-19b--------------|
|---17h19h20----------17h19h20------------------------------------|
|------------17h18h20---------------------------------------------|
|-----------------------------------------------------------------|
|-----------------------------------------------------------------|
|-----------------------------------------------------------------|

Ending....

E------------------------------------|
B------------------------------------|
G------3-----3-----------------------|
D----3-----3-----3-----4-----6-------|
A--1-----1-----1-----4-----6---6---0-|
E------------------2-----4-----------|

E---------------------------------|
B---------------------------------|
G------3-----3--------------------|
D----3-----3-----3---4--6---------|
A--1-----1-----1-----4--6---------|
E--------------------2--4---------| (end)


(Piece it all together)

=============================================================================
BODIES
======
transcription: Joseph Ninosky, Ryq

INTRO:
eb--------------------------------------------------|
Bb--------------------------------------------------|
Gb-------12--12-----12--12--14p12-------------------|
Db----14---------14----------------14~~~~~----------|
Ab--------------------------------------------------|
Eb--------------------------------------------------|

eb---------------------------------------------------|
Bb-------14------------14----------------------------|
Gb-------14--14~~~-----14--------12--12--14p12-------|
Db----14------------14--------14---------------14~~~-|
Ab---------------------------------------------------|
Eb---------------------------------------------------|

eb---------------------------------------------------|
Bb---12----------15--12------12----------------------|
Gb---14(bend)------------14------14--12---14--12-----|
Db------------------------------------------------14-|
Ab---------------------------------------------------|
Eb---------------------------------------------------|

eb--------------------------------------------------|
Bb--------------------------------------------------|
Gb---12---------------------------------------------|
Db-------14--12--14~~~~~~~~-------------------------|
Ab--------------------------------------------------|
Eb--------------------------------------------------|


verse riff:
Eb|---------0---0---------------------|
Bb|---------0---0---------------------|
Gb|---------0---0---------------------|
Db|-2---2-----------2---2-------------|
Ab|-2---2-----------2---2-------------|
Eb+-0---0-----------0---0---3~--------|
| |
| |
Gb+-----------------------------------|
Db|-----------------------------------|
Ab|-----7---5---5-------7---5\--------|
Eb|-0---------------0-----------3-----|

-songflow-
hi-hat...
riff (4x) bass only
riff (4x) w/intro solo
riff (4x)
riff (8x) chorus
riff (8x) verse
riff (8x) chorus
riff (4x) w/solo
riff (12x) bridge (no guitar)
riff (12x) chorus

=============================================================================
  	 How The Gods Kill Tab by Danzig, www.Ultimate-Guitar.Com

#----------------------------------PLEASE NOTE---------------------------------#
#This file is the author's own work and represents their interpretation of the #
#song. You may only use this file for private study, scholarship, or research. #
#------------------------------------------------------------------------------##
                                 How the Gods Kill
                                 =================
                               As recorded by Danzig
                    From the album Danzig III How the Gods Kill


Written by Glenn Danzig
Tab by Ryq Hinojos (hinojos@bluenote.aero.org) &
       Robert Flemming (rflemmin@ced.berkeley.edu)

SongFlow
--------
Intro
Figure 1 (12x)
Figure 2
Figure 3 (8x)
Figure 4 (4x)
Figure 2 (double time)
Figure 3 (8x)
Figure 5 (4x)
Outro

Intro
eb+-------------------+-----------------+------------------+
Bb+-------------------+-----------------+------------------+
Gb+o------4-------4---+-----4-------4---+-----0-------0----+
Db+o----5---5---5---5-+---5---5---5---5-+---2---2---2------+
Ab+-------------------+-----------------+-3-------3-----2--+
Eb+---0-------0-------+-0-------0-------+------------------+


Intro (continued)
   1.2.3.-------------|4.-----------------+
eb+-------------------+-------------------+
Bb+-------------------+-------------------+
Gb+------2-------2---o+-----2-------------+
Db+----2---2---2-----o+---2---2-----------+
Ab+--0-------0--------+-0-----------------+
Eb+----------------3--+----------3^-3^----+


Figure 1
eb+------------------------------------+
Bb+----12----10-----8-----7------------+
Gb+----12----11-----9-----7-----4--4/--+
Db+-----------------------------5--5/--+
Ab+------------------------------------+
Eb+--0-----0-----0-----0-----0---------+


Figure 2
eb+-------------------+-----------------+------------------+
Bb+-------------------+-------5---------+------------------+
Gb+o------4-------4---+-----4---4-------+-----0-------0----+
Db+o----5---5---5---5-+---5-------5-2-0-+---2---2---2------+
Ab+-------------------+-----------------+-3-------3-----2--+
Eb+---0-------0-------+-0---------------+------------------+


Figure 2 (continued)
   1.2.3.--------------|4.------------------------------------------------------+
eb+--------------------+------------------+-----------------+-------------------+
Bb+--------------------+------------------+-----------------+-------------------+
Gb+------2-------2----o+-----2------------+-----0-------0---+-----0-------0-----+
Db+----2---2---2------o+---2---2---2------+---2---2---2---2-+---2---2---2-------+
Ab+--0-------0---------+-0-------0---0-2--+-3-------3-------+-3-------3-----2---+
Eb+----------------3---+------------------+-----------------+-------------------+


Figure 2 (continued)
eb+------------------+------------------+------------------+-----------------+
Bb+------------------+------------------+------------------+-----------------+
Gb+------2-------2---+-----2-------2----+------0-------0---+-----0-------0---+
Db+----2---2---2---2-+---2---2---2---2--+----0---0---0---0-+---0---0---0---0-+
Ab+--0-------0-------+-0-------0--------+------------------+-----------------+
Eb+------------------+------------------+--3-------3-------+-3-------3-------+


Figure 2 (continued)
eb+------------------+--------------+
Bb+------------------+--------------+
Gb+------2-------2---+-----2--------+
Db+----2---2---2---2-+---2---2------+
Ab+--0-------0-------+-0-------5-5--+
Eb+------------------+---------3-3--+


Figure 3                               Figure 4
eb+---------------------------------+  +------------------------------+
Bb+---------------------------------+  +------------------------------+
Gb+---------------------------------+  +------------------------------+
Db+------AH---AH---AH---AH----------+  +-----9\---6\---5\---4\--------+
Ab+--2---10----9----7----5----5--5--+  +----10\---8\---7\---5\--5--5--+
Eb+--0------X----X----X----X--3--3--+  +--0-----0----0----0-----3--3--+


Figure 5
eb+--------------------------------------+
Bb+----12\----10\----8\----7\------------+
Gb+----12\----11\----9\----7\------------+
Db+--------------------------------------+
Ab+--------------------------------5--5--+
Eb+--0------0------0-----0-----0---3--3--+


Outro
eb+-------------------+-----------------+------------------+
Bb+-------------------+-----------------+------------------+
Gb+o------4-------4---+-----4-------4---+-----0-------0----+
Db+o----5---5---5---5-+---5---5---5---5-+---2---2---2------+
Ab+-------------------+-----------------+-3-------3-----2--+
Eb+---0-------0-------+-0-------0-------+------------------+


Outro (continued)
   1.2.3.-------------|4.-----------------------+
eb+-------------------+-------------------------+
Bb+-------------------+-------------------------+
Gb+------2-------2---o+-----2-------2-----------+
Db+----2---2---2-----o+---2---2---2-------------+
Ab+--0-------0--------+-0-------0---------------+
Eb+----------------3--+----------------3^--0----+

=============================================================================
DIRTY BLACK SUMMER - standard
==================
transcription: Chris Reeves


main riff:
E|----------------------------(8)------+ Notes: The '*' denotes where to
B|----------------------------(8)------+ play an artificial harmonic.
G|----------------------------/5*------+ The notes in parens are played
D|-----5-4-----5-4-----5-4-------------+ when the riff moves into the
A|/7-0-------0-------0-------0---------+ verse.
E|-------------------------------------+


verse riff:
E|---------------------------------|-----------------------------------|
B|---------------------------------|-----------------------------------|
G|-----------------------------8---|-----------------------------8-----|
D|-----7-------7-------7-------8---|-----------------------------8-----|
A|-7-7-7-777-7-7-777-7-7-777-7-6---|-7-7-7-7-7-7-7-7-7-7-7-7-7-7-6-----|
E|-5-5-5-555-5-5-555-5-5-555-5-----|-5-5-5-5-5-5-5-5-5-5-5-5-5-5-------|
pm> pm--> pm--> pm--> pm-----------------------------------------------|

verse riff (continued):
E|---------------------------------|-----------------------------------|
B|---------------------------------|-----------------------------------|
G|-----------------------------8---|-------------------------5---------|
D|-----7-------7-------7-------8---|-------------------------5---5-----|
A|-7-7-7-777-7-7-777-7-7-777-7-6---|-7-7-7-7-7-7-7-7-7-7-7-7-3---5-----|
E|-5-5-5-555-5-5-555-5-5-555-5-----|-5-5-5-5-5-5-5-5-5-5-5-5-----3-----|
pm> pm--> pm--> pm--> pm-----------------------------------------------|


bridge:
E|---5-5---5-(trem)----------------|--8--8-8-8----8-(trem)-----------|
B|-5-5-5---8-----------------------|--8--8-8-8---11------------------|
G|-5-----5-5-----------------------|--8--8-8---8--8------------------|
D|-7-------------------------------|-10-10---------------------------|
A|-7-------------------------------|-10------------------------------|
E|-5-------------------------------|--8------------------------------|


bridge end:
E|-5-5-5---5-(trem)----------------|--8---8-----8-----10-10-10-------|
B|-5-5-5---8-----------------------|-11---8-8---------10-10-10-------|
G|-5-5---5-5-----------------------|--8---------------10-10-10-------|
D|-7-------------------------------|-10---------------12-12-12-------|
A|-7-------------------------------|-10-----------/12-12-12-12-------|
E|-5-------------------------------|--8-8-----8---/10-10-10-10-------|


solo:
E+-----------------------------5-8--8-------------------------8-------|
B+------------------------/5-8---------------8-5----------------------|
G+-5--7^-7-7-7-7--7^--5---------------5-8-5------8-5--8-5-8-5---5-8-5-|
D+----------------------7---------------------------------------------|
A+--------------------------------------------------------------------|
E+--------------------------------------------------------------------|

solo continued:
E+--------------5-----------------------------------------|
B+---5--8-5--8^---8-5-------------------------------------|
G+-7------------------8-7-5----8--------------------------|
D+---------------------------7---7-5----------------------|
A+-----------------------------------7-6--5\3-5-3---------|
E+------------------------------------------------/20\----|


-songflow-
storm...
main riff (8x)
verse
main riff (4x)
verse
bridge bridge end
main riff (4x)
bridge bridge end w/solo
main riff (4x)
verse
bridge (3x) bridge end
main riff (8x)
C G
bridge (first measure only)
storm...
=============================================================================
LEFT HAND BLACK
===============
transcription: D.EVIL, Ryq

intro: bridge:
Eb|----------------------| |---------------------|
Bb|----------------------| |---------------------|
Gb|----------------------| |---------------------|
Db|-2--------------5--5--| |-2----5---2------ah--|
Ab|-2----7--5------5--5--| |-2----5---2-------7--|
Eb|-0----------3---3--3--| |-0----3---0--00000---|
pm-->

bass verse riff:
Gb|--------------------------|
Db|-----------------------5--|
Ab|-7---7-7---7-7---7-7-7----|
Eb|--------------------------|


fill: (variations of this are used during the verses)
Eb|----------------------------------------|
Bb|----------------------------------------|
Gb|-9---7--------7-------------------------|
Db|-----------9------9---7---9-------------|
Ab|----------------------------------7-----|
Eb|----------------------------------------|

Notes: The 'G' power chords transcribed in the intro riff are used
only in the beginning. Other calls to the intro riff do not
use the G chord.

-songflow-
intro (8x) w/'G' power chord
bridge (4x)
bass riff (12x) w/fills
G
D E (4x)
D
intro (4x)
bass riff (6x) w/fills; rhythm guitar plays palm-muted low E
G
D E (4x)
D
intro (4x)
bridge (4x)
bass riff (4x)
bass riff (4x) w/fills; rhythm guitar plays palm-muted low E
G
D E (12x)
D
E
=============================================================================
HEART OF THE DEVIL
==================
transcription: Ryq

intro: verse riff:
Eb|------------------| Eb|------------------|------------------|
Bb|------------------| Bb|------------------|------------------|
Gb|------------------| Gb|------------------|------------------|
Db|-------------5----| Db|-9--------9-------|-9-10-10-10-10-10-|
Ab|-------5--7-----7-| Ab|-7--------7-------|-7--8--8--8--8--8-|
Eb|-5--7-------------| Eb|-------0--------0-|------------------|
pm pm

Notes: During the riff, a second guitar adds F and E (third string, 10th
and 9th frets) to the first two verses. This is the guitar that
solos, then proceeds to feed back for the remainder of the song.

-songflow-
vocals...
intro
verse riff (16x)
A G A G
verse riff (10x)
A G A G
verse riff (2x)
A G A G
verse riff (8x) w/solo
A G A G
verse riff (10x)
A G A G
verse riff (2x)
A G A G
verse riff (2x)
A B C D (2x)
verse riff (2x)
A B C D (2x)
E

=============================================================================
  	 Sistinas Chords by Danzig, www.Ultimate-Guitar.Com

#----------------------------------PLEASE NOTE---------------------------------#
#This file is the author's own work and represents their interpretation of the #
#song. You may only use this file for private study, scholarship, or research. #
#------------------------------------------------------------------------------##
                                 Sistinas
                                 --------
                           As recorded by Danzig
                  from the album Danzig III How the Gods Kill

Written by Glenn Danzig
Tab by Robert Flemming (rflemmin@ced.berkeley.edu)

SongFlow
--------
Repeat Figure 1 for duration of song.
Chords refer to second guitar, bass, & keyboards
B D# B D#
B D# B D#
B D# B D#
E E F# F#
E E D#
B D# B D#
B D# B D#
B D# B D#
E E F# F#
E E D#
B D# G# D
B D# E D#
B D# B D#
B D# B D#
B D# B D#
E E F# F#
E E D#
B D# G# D
B D# E D#
B D# B D#
B D# B D#

Figure 1
e+----------------------------+
B+--------7--------7----------+
G+-----8--------8--------8----+
D+--7--------7--------7-------+
A+----------------------------+
E+----------------------------+
    PM------------------------+

                                /|  __  ___   ___  __  |\
 ******************************|  --  -^   \_/   ^-  --  |******************
 * morrigu@uclink.berkeley.edu \       ---_   _---       /                 *
 *              &               ----^\|   _>_<_   |/^----  Robert Flemming *
 *  rflemmin@ced.berkeley.edu        / --- / \ --- \                       *
 ************************************\__/| -^- |\__/************************
                                         \ MMM /
=============================================================================
Do You Wear The Mark Tab by Danzig, www.Ultimate-Guitar.Com

#----------------------------------PLEASE NOTE---------------------------------#
#This file is the author's own work and represents their interpretation of the #
#song. You may only use this file for private study, scholarship, or research. #
#------------------------------------------------------------------------------##
                            Do You Wear the Mark
                            --------------------
                            as recorded by Danzig
                  from the album Danzig III How the Gods Kill

Written by Glenn Danzig
Tab by Robert Flemming (rflemmin@ced.berkeley.edu)

SongFlow
--------
Figure 1 (6x) E
Figure 2 (8x) G C A
Figure 2 G C A
Figure 2 (4x) G C A
Figure 2 G C A
Figure 2 (2x)
Figure 3 (8x)
Figure 4 (16X) E
Figure 2 (6x with solo) G C A
Figure 5 (3x) E


Figure 1
e+--------------------------------------------------------+
B+--------------------------------------------------------+
G+--------------------------------------------------------+
D+-----------9\-----------12\------------9\----12-12-12---+
A+-----------7\-----------10\------------7\----10-10-10---+
E+--0-0-0-0------0-0-0-0--------0-0-0-0------0------------+
    PM---->      PM---->        PM---->-----------+      PM

Figure 2
e+-----------------------------------------------------------+
B+-----------------------------------------------------------+
G+------------------------------H*---------------------------+
D+--0h2-----------0h2-------5--(17)--(5)~~~\-----------------+
A+--0h2-----------0h2----------------------------------------+
E+--0-0--0-0-0-0--0-0--0-0-----------------------------------+
         PM---->       PM>      *tap above 17----------+th fret to get
                                 harmonic. Vibrato 5th then
                                 slide down from 5th.
Figure 2 (continued)
e+--------------------------------------+
B+--------------------------------------+
G+--------------------------------------+
D+--0h2-----------0h2-------------------+
A+--0h2-----------0h2-----------5--7----+
E+--0-0--0-0-0-0--0-0--0-0-0-0--3--5----+
         PM---->       PM------------+gt;

Figure 3   1/2
e+----------------+
B+----------------+
G+----------------+
D+--9\--2---------+
A+--7\--2------2--+
E+------0--3^--0--+


Figure 4
e+-----------------------+
B+-----------------------+
G+-----------------------+
D+--2----------------9\--+
A+--2--------5--5\7--7\--+
E+--0-0-0-0--3--3\5------+
      PM-->

Figure 5
e+-------------------------------------+
B+-------------------------------------+
G+-------------------------------------+
D+-------------------------------------+
A+--2--------2--------2--------5--7----+
E+--0-0-0-0--0-0-0-0--0-0-0-0--3--5----+
      PM-->    PM-->    PM-------+gt;

Figure 5 (continued)
e+----------------------------------------------+
B+----------------------------------------------+
G+----------------------------------------------+
D+--------------------------------------5-------+
A+--2--------2--------2--------5--7--5--3--7----+
E+--0-0-0-0--0-0-0-0--0-0-0-0--3--5--3-----5----+
      PM-->    PM-->    PM----------------+gt;

                                /|  __  ___   ___  __  |\
 ******************************|  --  -^   \_/   ^-  --  |****************---+
 * morrigu@uclink.berkeley.edu \       ---_   _---      ---------------------+           *
 *              &               ----^\|   _>_<_   |/^--------------+  Robert Flemming *
 *  rflemmin@ced.berkeley.edu        / --- / \ --- \-------------------------+           *
 ************************************\__/| -^- |\__/************************
                                         \ MMM /

=============================================================================
WHEN THE DYING CALLS
====================
transcription: Jimmie Spradlin, Ryq

riff 1a: riff 2: riff 1b: riff 3:
Eb|---------------||-----------------||---------------||-----------------|
Bb|---------------||-----------------||---------------||-----------------|
Gb|---------------||-----------------||---------------||-4-------4-------|
Db|---------------||-4-------4-------||-2^--0-2^--0---||-4-------4-------|
Ab|-2^--0-2^--0---||-4-------4-------||---------------||-2---2-2-2---2-2-|
Eb|---------------||-2---2-2-2---2-2-||---------------||-----------------|
pm> pm> pm> pm>

-songflow-
riff 1a
F# riff 1a (4x)
riff 2 riff 1a (4x)
riff 3 riff 1b
riff 3 riff 1a
riff 2 riff 1a (2x)
D B D B [break]
riff 1a
F# riff 1a (4x)
riff 2 riff 1a (4x)
riff 3 riff 1b
riff 3 riff 1a
riff 2 riff 1a (2x)
D B D B [break]
riff 1a
F# riff 1a (4x)
riff 3 riff 1b w/solo
riff 3 riff 1a w/solo
riff 2 riff 1a (2x) w/solo
D B D B [break] w/solo
riff 1a w/solo
F# riff 1a (4x) w/solo
F# riff 1a (4x)
D B D B [break]
riff 1a (slowly)
F# (mix fades down)
F#
=============================================================================
=============================================================================
Tap to rate this tab
# A B C D E F G H I J K L M N O P Q R S T U V W X Y Z