Guitaretab - guitar tabs
Song name
# A B C D E F G H I J K L M N O P Q R S T U V W X Y Z

Danzig - Black Candy tab

Black Candy
Danzig
From the Album: DethRed Sabaoth

Tablature by: Matthew Choat ( moc0007@gmail.com )

Intro/Main Riff:

E:----------11b---------------|
B:----------------------------|
G:----------------------9-9-9-|
D:-11-11-11-------9-9-9-9-9-9-|
A:-11-11-11-------9-9-9-7-7-7-|
E:-9--9--9--------7-7-7-------|  x4
   C#       F#     B      E

Verse 1:

E:------11b-|
B:----------|
G:----------|
D:-11-------|
A:-11-------|
E:-9--------|
            Just like you're losing your mind
            Black candy is so hard to find

E:----------11b------------------------------11b---|
B:-------------------------------------------------|
G:----------------11-11-11-9-9-9-------------------|
D:-11-11-11-------11-11-11-9-9-9----11-11-11-------|
A:-11-9--11-------9--9--9--7-7-7----11-11-11-------|
E:-9--9--11-------------------------9--9--9--------|
                  See how she sets you on fire
                  Black candy, it dies on the vine
                  ashes are summoned in time
                  just like your story to die

Chorus 1:
[ Tab from: http://www.guitaretab.com/d/danzig/238000.html ]
(Main Riff)
black candy is so hard to find
see how she sets you on fire
black candy is so hard to buy


Verse 2: (same guitar as verse 1)
C#       F#          E
         Just like a backbone it hides
         black candy is so hard to find
         see how she never denies
         black candy that comes in the night
         Just like the hell of your mind
         just like you're going to die

Chorus 2:
(Main Riff)
Black candy is so hard to find
see how she sets you on fire
black candy is so hard to buy
black candy is so hard to find


Verse 3:
C#       F#               E
         Just like you're going to expire
         black candy is what you desire
         see how you're starting to spiral
         black candy that comes in the night
         this is how she's make you high
         just like you're going to die


Chorus 3:

(Main Riff)
Black candy is so hard to find
the ashes set you on fire
black candy is so hard to buy
black candy is so hard to find
black candy is so hard to find
black candy is so hard to find
black candy is so hard to find

Thatís it! Please rate!
Related for Black Candy tab
Black Candy chords by Danzig