Song name
# A B C D E F G H I J K L M N O P Q R S T U V W X Y Z

Danzig - Mother tab

 mother:

                Intro                 Main Verse
e:---------|-------------------|---------------------------------|
B:---------|-------------------|---------------------------------|
G:---------|-------------------|---------------------------------|
D:---9-----|--5----7----9------|--------5--------7--------9-9-9--|
A:---9-----|--5----7----9------|--------5--------7--------9-9-9--|
E:---7-----|--3----5----7------|--7--5--3--3--5--5--5--7--7-0-7--|
           \   (Play 7X)       /\           (Play 8X)            /
            Mother, tell ....      


  Main verse Before Chorus
e:-------------------------|
B:-------------------------|
G:-------------------------|
D:--------5--------7-------|
A:--------5--------7-------|
E:--7--5--3--3--5--5--5--7-|
  Fatherrrrrrrrrrrr . . .   



               Chorus 
e:---------------------------------------------------------|
B:---------------------------------------------------------|
G:---------------------------------------------------------|
D:---5---5--5-5----7---7--7-7----9---9-------9----7----5---|
A:---5---5--5-5----7---7--7-7----9---9-------9----7----5---|
E:---3---3--3-0----5---5--5-0----7---7-------7----5----3---|
  \                       (Play 3X)                        /
 (oh, you all know the song. Tab only from now on . . . )    


        Chorus Interlude
e:--------------------------------------------------------------|---------|
B:--------------------------------------------------------------|---------|
G:--------------------------------------------------------------|---------|
D:---5---5--5-5----7---7--7-7---5-5-5-5-5-5-5-5-5-5-------------|--9-9-9--|
A:---5---5--5-5----7---7--7-7---5-5-5-5-5-5-5-5-5-5-------------|--9-9-9--|
E:---3---3--3-0----5---5--5-0---3-3-3-3-3-3-3-3-3-3-------------|--7-0-7--|
                                \   palm muted    /


                               
     Main Verse                                       
e:--------------------------------|--------------------|
B:--------------------------------|--------------------|
G:--------------------------------|--------------------|
D:--------5--------7--------9-9-9-|--------5----7------|
A:--------5--------7--------9-9-9-|--------5----7------|
E:--7--5--3--3--5--5--5--7--7-0-7-|--7--5--3----5------|
  \            (Play 7X)          /



               Chorus 
e:---------------------------------------------------------|
B:---------------------------------------------------------|
G:---------------------------------------------------------|
D:---5---5--5-5----7---7--7-7----9---9-------9----7----5---|
A:---5---5--5-5----7---7--7-7----9---9-------9----7----5---|
E:---3---3--3-0----5---5--5-0----7---7-------7----5----3---|
  \                       (Play 3X)                        /



        Chorus Interlude
e:--------------------------------------------------------------|
B:--------------------------------------------------------------|
G:--------------------------------------------------------------|
D:---5---5--5-5----7---7--7-7---5-5-5-5-5-5-5-5-5-5-------------|
A:---5---5--5-5----7---7--7-7---5-5-5-5-5-5-5-5-5-5-------------|
E:---3---3--3-0----5---5--5-0---3-3-3-3-3-3-3-3-3-3-------------|
                                \   palm muted    /




e:--------------------------|
B:--------------------------|
G:--------------------------|
D:--------------------------|
A:--------------------------|
E:--3-3-3-3-3-3-3-3-3-3-3-3-|
    \  heavy palm muting  /



    /      Solo Goes Over All Of This         \    /  Ending             \
e:-----|----------------------------|------------------------------------|
B:-----|----------------------------|------------------------------------|
G:-----|----------------------------|------------------------------------|
D:--9--|---5--7--9------13--11--9---|--5--7--9-----13-13-13-11-11-----9--|
A:--9--|---5--7--9------13--11--9---|--5--7--9-----13-13-13-11-11-----9--|
E:--7--|---3--5--7------11--9---7---|--3--5--7-----11-11-11--9--9-----7--|
        \            Play 3X        /



Smitty is  . . .  clsmith@engin.umich.edu
   _____________________________________________________________________
 /                                                                       \
|         This .sig has been deemed unappropriate and obscene.            |
 \_______________________________________________________________________/
-- 


From: dylan@mail.csh.rit.edu (Gary Coulbourne)
                                ============

                                  MOTHER

                                ============

                                by Danzig


|---------------------------------------|------------------------------------
|------0--------------------------------|------------------------------------
|--4---0-----2----4------X--0----2----4-|--(4)-----2--4--0----0--2--2------4-
|--4---0-----2----4---------0----2----4-|--(4)--0--2--4--0----0--2--2---0--4-
|--2---2-----0----2---------2----0----2-|--(2)--2--0--2--2-------0------0--2-
|------3----------X---------3-----------|-------3--------3--3----------------
                         (Play 3x)
 
|----------------------------------------------------------------------------
|--------------------0-------0-------------------------------------------0---
|-(4)-----4---4------0-------0---2---2---0---4-------4---4-------0-------0---
|-(4)-2---4---4---0--0---0---0---2---2---0---4---2---4---4---0---0-----------
|-(2)-2---2-------0--2---2-------0-----------2---2---2---2---0---2---2-------
|--------------------3---3---------------------------------------3---3-------
 
|-----------------|----------------------------------------------------------
|-----------------|----------------------------------------------------------
|-2-----------4---|------4---4-------0-------0---2---2---0---4-------0-------
|-2---2-------4---|--2---4---4---0---0-------0---2---2---0---4---0---0-------
|-0---0---2---2---|--2---2-------0---2---2-------0-----------2---0---2-------
|---------2-------|------------------3---3---------------------------3-------
 
                                         1-------   2--------
|---------------------------------------|----------|-------------------------
|---------------------------------------|----------|-------------------------
|----------------------2----2---2-----4-|-4---2----|--4--2--5----------------
|--5---5---5---5-------2----2---2-----4-|-4---2----|--4--2--5----------------
|--5---5---5---5-------0----0---0--0--2-|-2---0----|--2--0--5----------------
|--3---3---0---0---0---------------0--2-|----------|--------3----------------
                               Play 2x
 
|---------------------------------------------|------------------------------
|---------------------------------------------|------------------------------
|------4---4-----2----2----2-2---4---4---4---2|----------------2-------------
|--5---5---5-----2----2----2-2---4---4---4---2|-5--5---5-5-----2-------------
|--5---5---5-----0----0----0-0-0-2---2---2---0|-5--5---5-5--5--0-------------
|--3---0---0--0----------------0-2---2--------|-3--3---3-3--3----------------
 

                            D.S. al Coda

|--------------------------------------|
|--------------------------------------|
|-2---2-2-2-2-------------------------4|
|-2---2-2-2-2---------------------4---4|
|-0---0-0-0-0---4-4-4-4-4-4-4-4---4---2|
|---------------2-2-2-2-2-2-2-2---2----|
Tap to rate this tab
# A B C D E F G H I J K L M N O P Q R S T U V W X Y Z