Song name
# A B C D E F G H I J K L M N O P Q R S T U V W X Y Z

Danzig - On A Wicked Night chords

Highlighted       Show chord diagrams
band:danzig
song:on a wicked night
album:red deth sabaoth




Intro and Verse 1-4


 Asus4                   Fmaj7-5                     Cadd9

---0--------------      -------------------         ---0---------------|
---3--------------      ---3---------------         ---3---------------|
---2--------------      ---2---------------         ---0---------------|
---0--------------      ---3---------------         ---2---------------|
---0--------------      -------------------         ---3---------------|
------------------      -------------------         -------------------|




Chorus:

 Asus4                  Cadd9                        G6

---0--------------     ---0-----------------        ---------------------|
---3--------------     ---3-----------------        ---3-----------------|
---2--------------     ---0-----------------        ---0-----------------|
---0--------------     ---2-----------------        ---0-----------------|
---0--------------     ---3-----------------        ---2-----------------|
------------------     ---------------------        ---3-----------------|



Intro

Asus4   Fmaj7-5  Cadd9   Asus4


Verse 1

Asus4   Fmaj7-5  Cadd9   Asus4

Hey my lady in black
Now I see you're back
Haven't seen you for a while
Kinda miss your deadly smile


Chorus

Asus4   Cadd9    G6

On a windy night
On a windy night
On a wicked night
On a wicked night
 

Verse 2

Asus4   Fmaj7-5  Cadd9   Asus4

Hey my lady in death
have you come for my last breath
I never thought that we were through
I bet you knew I knew it too
I never thought that we were through
I bet you knew I knew it too

Chorus

Asus4   Cadd9    G6

On a windy night
On a windy night
On a wicked night
On a wicked night

Verse 3

Asus4   Fmaj7-5  Cadd9   Asus4

Hey my lady in black
Now I have you back
I haven't seen you for a while
I kinda miss your deadly smile

Verse 4

Asus4   Fmaj7-5  Cadd9   Asus4

Hey my lady in death
I see you've come for my last breath
I never thought that we were through
I bet you knew that I knew it too


Chorus

Asus4   Cadd9    G6
On a windy night
On a windy night
On a wicked night
On a wicked night



~end~

*comment/rate*
Tap to rate this tab
# A B C D E F G H I J K L M N O P Q R S T U V W X Y Z