Song name
# A B C D E F G H I J K L M N O P Q R S T U V W X Y Z

Danzig - Mother tab

SONG NAME - Band Name
-------------------------------------------------------------------------------
Tabbed by:
E-mail:

Tuning:eadgae
intro7 times
e|---------------------------||-----------------------------||--------------------|
B|---------------------------||-----------------------------||--------------------|
G|---------------------------||-o-------------------------o-||--------------------|
D|-4------0------2-------4---||------0--------2-----4-------||--------------------|
A|-2------2------0-------2---||-o----2--------0-----2-----o-||--------------------|
E|--------3------------------||------3----------------------||--------------------|
                                       7 times
e|-----------------------------------||------------------------------------------|
B|-----------------------------------||------------------------------------------|
G|-----------0-----------------------||-------------0----------------------------|
D|----0------0---2--2--0--4---2---4--||-------0-----0--2--0--4---2--4------------|
A|-0--2----------0--------2---2---2--||-2--0--2--------0--0--2---2--2------------|
E|----3---3--------------------------||-------3---3------------------------------|

e|--------------------------------------------------------------------------------|
B|--------------------------------------------------------------------------------|
G|--------------------------------------------------------------------------------|
D|--------------------------------------------------------------------------------|
A|---0-------4--2--4-------0------------------------------------------------------|
E|3------2---2--2--2---3----------------------------------------------------------|
chorus 3 times
e|-----------------------------------------------------------------------------|
B|-----------------------------------------------------------------------------|
G|----------------2----2---2-2-2-----4---4----4--2-----------------------------|
D|-5--5---5-5-----2----2---2-2-2-----4---4----4--2-----------------------------|
A|-5--5---5-5-----0----0---0-0-0-----2---2----2--0-----------------------------|
E|-3--3---3-3--0---------------------2---2-------------------------------------|

e|------------------------------------------------------------------------------|
B|------------------------------------------------------------------------------|
G|----------------2---2---2-2-2-2-----------------------------------------------|
D|-5--5---5-5-----2---2---2-2-2-2---------4-------------------------------------|
A|-5--5---5-5-----0---0---0-0-0-0---4  ---4-------------------------------------|
E|-3--3---3-3--0--------------------2(x8)-2-------------------------------------|
first solo
e|-------------------------------------------------------------------7--------|
B|--------------------------------------------------------------7-10----10b---|
G|---------------------------7-9/7-------9b-9/7--9b-9/7-9b9-------------------|
D|-----------------7-9/7------------9/7----------------------9----------------|
A|------5-7-5-7/9--------9----------------------------------------------------|
E|7-5-7-----------------------------------------------------------------------|

e|-----------10b10/7----------------------------------17---1717-17-------------|
B|-10-10-7-----------10-10b10b10b10-------15/17-17b-----17---17-17--17/15------|
G|-----------------------------------/16---------------------------------------|
D|-----------------------------------------------------------------------------|
A|-----------------------------------------------------------------------------|
E|-----------------------------------------------------------------------------|

e|-----------------19--24b--24b~~~~~~~~~~~~------------------------------------|
B|17--15------/19--------------------------------------------------------------|
G|--------16-------------------------------------------------------------------|
D|-----------------------------------------------------------------------------|
A|-----------------------------------------------------------------------------|
E|-----------------------------------------------------------------------------|
outro solo
e|-----7-------------7------------------------------------------------------------|
b|-7b----7b--7b--7b--7--7--9b9/7--9/7-----7---------------------------------------|
G|-9b----9b--9b--9b-----7--9b9/7--9/7-----7-----7-9b---9/7--------------0---------|
D|--------------------------------------9----9--------------9--9--------0---------|
A|--------------------------------------9---------------------------------5--5/---|
E|---------------------------------------------------------------5/3-5/7----------|

e|----------------------7---------------10b---------10b--10---10b10-11-12-12b12-12b~~~~--|
B|---------7---7\10\7-----10-10b10-10-7-----10b10-7-10b-----7-10b10-------------12b------|
G|7---9\7--7/9--------9------------------------------------------------------------------|
D|7-7/9\7--7-----------------------------------------------------------------------------|
A|---------------------------------------------------------------------------------------|
E|---------------------------------------------------------------------------------------|

e|12b12/10----12-10-12----10-14/10----10/12/10----10/14/10/12/10----10/14/10-----|
B|---------12-------12/12----------12----------12----------------12----------12--|
G|-------------------------------------------------------------------------------|
D|-------------------------------------------------------------------------------|
A|-------------------------------------------------------------------------------|
E|-------------------------------------------------------------------------------|

e|-10/14/10----10/12/10----10/14/10/12/10-------14/17/14---14-----------------------|
B|----------12----------12----------------12/15---------------17b-------------------|
G|-------------------------------------------------------0--------------------------|
D|----------------------------------------------------------------------------------|
A|----------------------------------------------------------------------------------|
E|----------------------------------------------------------------------------------|

e|-----17-----17---17----17-------17/14----14----------------------------------|
B|17-----17b--17b-----17-17b17/15-------17-14--17b17---------------------------|
G|-----------------------------------------------------------------------------|
D|-----------------------------------------------------------------------------|
A|-----------------------------------------------------------------------------|
E|-----------------------------------------------------------------------------|

e|--------------------------------------------------15/17/15-----------------------|
B|17b17/15/17/15---------------------15/17/15-15/17--------------------------------|
G|---------------16/14/16/14/--14-16-----------------------------------------------|
D|---------------------------16----------------------------------------------------|
A|---------------------------------------------------------------------------------|
E|---------------------------------------------------------------------------------|

e|------------------------------------------------------19------------------------|
B|-17-x-17/22/19--19----19-------------------19/22/19---19-22-22b-22b-------------|
G|--------------21--21b----------19/21/19--19---------21--------------------------|
D|-------------------------19/21---------21---------------------------------------|
A|--------------------------------------------------------------------------------|
E|--------------------------------------------------------------------------------|
Tap to rate this tab
# A B C D E F G H I J K L M N O P Q R S T U V W X Y Z