Guitaretab - guitar tabs
Song name
# A B C D E F G H I J K L M N O P Q R S T U V W X Y Z

Danzig - Long Way Back From Hell tab

Danzig  Long Way Back From Hell!

Glenn again! With the epic number! Contact me at: rattlehead.coolio@hotmail.com

Tablature Legend:

h     - hammer-on 
p     - pull-off
t     - tremolo
d     - dive-bomb
PM|-| - Palm mute
~     - vibrato
?(?)  - bend (to what is in the brackets)  
/     - slide up
\     - slide down

Intro:

e|-----------------|-----------------|-14~~~~~~~~~~~~~~~~~~~~~~~~~~~-|
B|-----------------|-----------------|-------------------------------|
G|-----------------|-----------------|-------------------------------|
D|-----------------|-----------------|-------------------------------|
A|-----------------|-----------------|-------------------------------|
E|-7d-----5t~~~~---|-9d-----5t~~~~---|-------------------------------|

e|-------------------------------|-------------------------------|
B|-------------------------------|-------------------------------|
G|-------------------------------|-------------------------------|
D|-------------------------------|-------------------------------|
A|-------------------------------|-------------------------------|
E|-9(10)-(10)-(10)-(10)--7d------|-9(10)-(10)-(10)-(10)--7d------|

e|-------------------------------|------------------------------------------------------|
B|-------------------------------|------------------------------------------------------|
G|-------------------------------|-------------------------7-9(11)9(11)-9(11)-9p7---7~-|
D|-------------------------------|-----------------------9-------------------------9----|
A|-------------------------------|------------------------------------------------------|
E|-9(10)-(10)-(10)-(10)--7d------|-9(10)-(10)-(10)-(10)---------------------------------|

Verse I:
                                                      (x3)
e|---------------------------|---------------------------|
B|---------------------------|---------------------------|
G|---------------------------|---------------------------|
D|-----10\9-------10\9-------|-----10\9-------10\9-------|
A|-9---8-\7---9---8-\7---10--|-9---8-\7---9---8-\7---10--|
E|-7----------7----------8---|-7----------7----------8---|

Chorus I:

e|-------------------|-------------------|---------------|------------------------------|
B|-------------------|-------------------|---------------|------------------------------|
G|-------------------|-------------------|---------------|-----------------9(11)9(11)--|
D|-------------------|-------------------|---------------|------------------------------|
A|-9--------7--------|-9--------7--------|-5---7---9-----|-5---7------------------------|
E|-7--------5--------|-7--------5--------|-3---5---7-----|-3---5------------------------|

Verse II: (same as Verse I)

Chorus II: (same as Chorus I)

Solo:

e|-----------------------------------------------------------------------------|
B|-----------------------------------------------------------------------------|
G|-9(11)~-9(11)~-9(11)~-9(11)~-9(11)~-9(11)~-9(11)~-9(11)~--9(11)(9)p7-9p8p7---|
D|---------------------------------------------------------------------------9-|
A|-----------------------------------------------------------------------------|
E|-----------------------------------------------------------------------------|
[ Tab from: http://www.guitaretab.com/d/danzig/37604.html ]
e|--------------------------------|-/15-15\-/17-17\--/15-15\-/17-17\-|
B|-9(11)(9)p7---------------------|-/15-15\-/17-17\--/15-15\-/17-17\-|
G|-9(11)(9)p7-9-7---7-------------|----------------------------------|
D|----------------9---9p8p7---7---|----------------------------------|
A|--------------------------9-----|----------------------------------|
E|------------------------------7-|----------------------------------|

e|-10-13-12-10-13-12-10-13-12-10-13-12-10-13(15)(13)p10-----|
B|------------------------------------------------------12\-|
G|----------------------------------------------------------|
D|----------------------------------------------------------|
A|----------------------------------------------------------|
E|----------------------------------------------------------|

e|-------------------------------------------------17(19)~-17p14-17(19)-(19)-(19)-|
B|-------------------------------15-14-12-17-15-14--------------------------------|
G|----------------------15-14-12--------------------------------------------------|
D|-------------15-14-12-----------------------------------------------------------|
A|-15-15-14-12--------------------------------------------------------------------|
E|--------------------------------------------------------------------------------|

e|-22(24)p17-19~\-|-/20-22-24(26)-24(26)-24(26)-(26)-(26)-(26)-(26)-(26)-|
B|----------------|------------------------------------------------------|
G|----------------|------------------------------------------------------|
D|----------------|------------------------------------------------------|
A|----------------|------------------------------------------------------|
E|----------------|------------------------------------------------------|

e|-19-22p21p19----19~-|--------------------------------|
B|-------------22-----|-10(12)-10--9--7----------------|
G|--------------------|------------------9--7----------|
D|--------------------|------------------------9~~~~~~-|
A|--------------------|--------------------------------|
E|--------------------|--------------------------------|

Chorus III: (last note of the solo is the first note of this Chorus)

e|-------------|-10d-------------------|-----------------------|-10d------|
B|-------------|-----------------------|-----------------------|-10d------|
G|-------------|-----------------------|-----------------------|----------|
D|-7~~~~~~~~---|-----------7~~~~~~~~---|-9d--------7~~~~~~~~---|----------|
A|-------------|-----------------------|-----------------------|----------|
E|-------------|-----------------------|-----------------------|----------|

e|--------------------------------|
B|--------------------------------|
G|---7-9(11)9(11)-9(11)-9p7---7~-|
D|-9-------------------------9----|
A|--------------------------------|
E|--------------------------------|

Verse III: (same as Verse I except for this added solo near the start)

e|---------------------------------------|
B|-9(11)(9)p7-9(11)(9)p7-----------------|
G|-9(11)(9)p7-9(11)(9)p7---7~------------|
D|-----------------------9----9p7---7-9~-|
A|--------------------------------9------|
E|---------------------------------------|

Chorus IV:

e|-------------------|-------------------|
B|-------------------|-------------------|
G|-------------------|-------------------|
D|-------------------|-------------------|
A|-9--------7--------|-9--------7--------|
E|-7--------5--------|-7--------5--------|

                                        (x3)
e|-----------------------------------------|
B|-----------------------------------------|
G|-----------------------------------------|
D|-----------------------------------------|
A|-5---7---------9-------9-------9-------9-|
E|-3---5---7-7-7-7-7-7-7-7-7-7-7-7-7-7-7-7-|
PM        |-----| |-----| |-----| |-----|

Outro:

e|------------------------------------|
B|------------------------------------|
G|------------------------------------|
D|-7-----------9----------------------|
A|-5-----------7----------------------|
E|------------------------------------|

Enjoy!
Related for Long Way Back From Hell tab