Song name
# A B C D E F G H I J K L M N O P Q R S T U V W X Y Z

Danzig - Netherbound tab

NETHERBOUND - Danzig
===========

Tuning: (C F Bb Eb G c)

 intro 1: 
C |--------------------------------| 
G |--------------------------------| 
Eb|------------------7-----5-------| 
Bb|-2----------------7-----5-------| 
F |-2----------------5-----3-------| 
C |-0---2h3p2-0--------------------|  

 intro 2/chorus riff 2: 
C |--------------------------------| 
G |--------------------------------| 
Eb|--------------------------------| 
Bb|-2--------------------7-------5-| 
F |-2---------------5-8-----3-6----| 
C |-0---2h3p2-0--------------------|    

verse: 
C |-----------------------| 
G |-----------------------| 
Eb|-----------------------| 
Bb|-2---2-----2---2---2-3-| 
F |-2---2-----2---2---2-3-| 
C |-0---0-----0---0---0-1-|  

 chorus riff 1: 
C |--------------------------------| 
G |--------------------------------| 
Eb|-------2----------7-----5-------| 
Bb|-2--------2-------7-----5-------| 
F |-2-----------2----5-----3-------| 
C |-0------------------------------|
Tap to rate this tab
 
# A B C D E F G H I J K L M N O P Q R S T U V W X Y Z