Song name
# A B C D E F G H I J K L M N O P Q R S T U V W X Y Z

Danzig - Night Besodom tab

----------------------------------------------------------------------------
			     NIGHT, BESODOM - Danzig
----------------------------------------------------------------------------
Tabbed by:Jimmy D
Email:davidson126@netzero.com

Tuning:C F Bb Eb G c

Intro:
e|-------------------------------------------------------------------------|
B|-------------------------------------------------------------------------|
G|-------------------------------------------------------------------------|
D|--2----------5-----------------------------------------------------------|
A|--2---2/3-2--5-----------------------------------------------------------|
E|--0----------3-----------------------------------------------------------|

Verse:
e|-------------------------------------------------------------------------|
B|-------------------------------------------------------------------------|
G|-------------------------------------------------------------------------|
D|--2---------5--7---2---------5--4----------------------------------------|
A|--2---------5--7---2---------5--4----------------------------------------|
E|--0--0-0-0--3--5---0--0-0-0--3--2----------------------------------------|
PM     x x x            x x x  

Chorus Pt1:
e|-------------------------------------------------------------------------|
B|-------------------------------------------------------------------------|
G|-------------------------------------------------------------------------|
D|-------------------------------------------------------------------------|
A|---------------3~-2~-----------------------------------------------------|
E|--0-0-0-0-0-0------------------------------------------------------------|
PM  x x x x x x  +  +

Bass Interlude: play at low volume under bass
e|-------------------------------------------------------------------------|
B|-------------------------------------------------------------------------|
G|-------------------------------------------------------------------------|
D|--2----------------------------------------------------------------------|
A|--2----------------------------------------------------------------------|
E|--0----------------------------------------------------------------------|

Chorus Pt2:
e|-------------------------------------------------------------------------|
B|-------------------------------------------------------------------------|
G|---------------5--4------------------------------------------------------|
D|---------------5--4----------------5--4----------------------------------|
A|---------------3--2----------------5--4----------------------------------|
E|--0-0-0-0-0-0---------0-0-0-0-0-0--3--2----------------------------------|
PM  x x x x x x         x x x x x x 

Ending:
e|-------------------------------------------------------------------------|
B|-------------------------------------------------------------------------|
G|-------------------------------------------------------------------------|
D|--2----------------------------------------------------------------------|
A|--2----------------------------------------------------------------------|
E|--0----------------------------------------------------------------------|


Song Flow:
Intro:4x
Verse:10x
Chorus Pt1:4x
Verse:8x
Chorus Pt1:4x
Bass Interlude:4x
Chorus Pt2:12x (4x alone, 4x under solo, 4x alone)
Ending:1x


| /  slide up
| \  slide down
| h  hammer-on
| p  pull-off
| ~  vibrato
| +  harmonic
| x  Mute note
============================================================================
Tap to rate this tab
# A B C D E F G H I J K L M N O P Q R S T U V W X Y Z