Song name
# A B C D E F G H I J K L M N O P Q R S T U V W X Y Z

Danzig - Hellmask tab

Help us improve GuitareTab! Take a short survey!
     Band:Danzig
     Song:HellMask
     Tabbed by:Luis ALvarez
     E-mail:fiendfest@yahoo.com
     /=slide up
     \=slide down
     .=palm mute


      Intro
        G A                         G A            
    e|---------------------------------------------------------------------|
    B|---------------------------------------------------------------------|
    G|---------------------------------------------------------------------|
    D|--5/7-7-7-7-7-7-7-7-7-7-5-4---5/7-7-7-7-7-7-7-7-7-7-3-5--------------|
    A|--5/7-7-7-7-7-7-7-7-7-7-5-4---5/7-7-7-7-7-7-7-7-7-7-3-5--------------|
    E|--3/5-5-5-5-5-5-5-5-5-5-------3/5-5-5-5-5-5-5-5-5-5------------------|
            . . . . . . . . .           . . . . . . . . .

      Verse Riff/Outro finish on A.The single note on E strum up and cown 
      really fast.Because Tommy Victor does this it's really hard to
      count the notes listen to the song it's really easy.
 
        G A                         D C C D                         C D
    e|---------------------------------------------------------------------|
    B|---------------------------------------------------------------------|
    G|------------------------------7\5-----------------------------5/7----|
    D|--5/7-------------------------7\5-5/7-------------------------5/7----|
    A|--5/7-------------------------5\3-5/7-------------------------3/5----|
    E|--3/5-5-5-5-5-5-5-5-5-5-5-5-5-----3/5-5-5-5-5-5-5-5-5-5-5-5-5--------|
            . . . . . . . . . . . .         . . . . . . . . . . . .

      Bridge
        G A         G A       D
    e|---------------------------------------------------------------------|
    B|---------------------------------------------------------------------|
    G|------------------------7--------------------------------------------|
    D|--5/7-7-7-7---5/7-7-7-7-7--------------------------------------------|
    A|--5/7-7-7-7---5/7-7-7-7-5--------------------------------------------|
    E|--3/5-5-5-5---3/5-5-5-5----------------------------------------------|
            . . .       . . .


     Lyrics

     Razed infernal hell reborn
     Gaze unhallowed eyes of stone
     Face of fire face of death
     Mask of devils beast enraged
     Stare of darkness smile of flames
     Untold secrets hate regained
     Killing grimace black abyss
     Jaws of hunger murder kiss



     There are two guitars.One plays riffs,othere plays the little fills    
     here and there.
     {To be old and wise,You got to be young and stupid}
Related for Hellmask tab