Song name
# A B C D E F G H I J K L M N O P Q R S T U V W X Y Z

Danzig - Skin Carver tab

Help us improve GuitareTab! Take a short survey!
SKINCARVER - Danzig

Tuning: (C F Bb Eb G c)

   main riff: 
C |------------------------------| 
G |------------------------------| 
Eb|------------------------------| 
Bb|---------------------------AH-| 
F |-7-----8----10-------7---7-10-| 
C |-0-0-0-0-0-0-0-0-0-0-0-0-0----| 
      pm    pm    pm-->   pm 

   bridge: 
C |-------------------------------| 
G |-------------------------------| 
Eb|----------------------------AH-| 
Bb|----------------------------3--| 
F |-10-8-7-8-7-5-7-5-3-5-3-2-0----| 
C |-------------------------------| 

   verses: 
C |------------------------------------| 
G |------------------------------------| 
Eb|------------------------------------| 
Bb|------------------------------------| 
F |-7-7-7-8-8-8-10-10-10-8-8-8-7-8-7-8-| 
C |-0-0-0-0-0-0--0--0--0-0-0-0-0-0-0-0-| 
    pm-------------------------------> 

  verse cont'd: 
C |------------------------------------| 
G |------------------------------------| 
Eb|------------------------------------| 
Bb|------------------------------------| 
F |-7-7-7-8-8-8-10-10-10-8-8-8-7-8~~~--| 
C |-0-0-0-0-0-0--0--0--0-0-0-0-0-------| 
    pm-------------------------> 

   chorus 1: 
C |-/12~~~----------------||----------------------| 
G |-------/10---(10)b11~~~||----------------------| 
Eb|-----------------------||9---(9)b12r9~~~9-10~~~| 
Bb|-----------------------||----------------------| 
F |-----------------------||----------------------| 
C |-----------------------||----------------------|
 (repeat first part of chorus then repeat bridge) 

   chorus 2: 
C |---------0------------0---------0-------------| 
G |---------0------------0---------0-------------| 
Eb|---------9-----------10---------9-------------| 
Bb|---------9-----------10---------9-------------| 
F |---------7---------8--8---------7---------7-7-| 
C |-0-0-0-----0--0--0-0----0-0-0-----0--0--0-5-6-| 
    pm-->     pm---->      pm-->     pm----> 

   post chorus 2 bridge:        end: 
C |---------------------------||---------------------------| 
G |---------------------------||---------------------------| 
Eb|---------------------------||---------------------------| 
Bb|---------------------------||---------------------------| 
F |-2-2--2-AH---2--2--2-AH-AH-||-2-2--2-AH---2--2--2-AH/10~| 
C |-0-0--0--3---0--0--0--3--3-||-0-0--0--3---0--0--0--3/-0-| 
    pm--->      pm---->          pm--->      pm----> 
Related for Skin Carver tab