Song name
# A B C D E F G H I J K L M N O P Q R S T U V W X Y Z

Danzig - My Darkness tab

----------------------------------------------------------------------------
			     MY DARKNESS - Danzig
----------------------------------------------------------------------------
Tabbed by:Jimmy D
Email:davidson126@netzero.com

Tuning:C F Bb Eb G c

Intro:         
e|-------------------------------------------------------------------------|
B|-------------------------------------------------------------------------|
G|-------------------------------------------------------------------------|
D|-------------------------------------------------------------------------|
A|---0---0---0---0---0---0---0---0---0--0-0---0---0------------------------|
E|-4---4---2---4---4---2---4---4---2---4-4--4---2--------------------------|

Verse:
e|-------------------------------------------------------------------------|
B|-------------------------------------------------------------------------|
G|-------------------------------------------------------------------------|
D|--6-6-6-6-6--10--9-------------------------------------------------------|
A|--6-6-6-6-6--10--9---/9~-------------------------------------------------|
E|--4-4-4-4-4---8--7-------------------------------------------------------|
                       +
Chorus:
e|-------------------------------------------------------------------------|
B|-------------------------------------------------------------------------|
G|-------------------------------------------------------------------------|
D|-6---------6-------------------------------------------------------------|
A|-6--0---0--6--0----------------------------------------------------------|
E|-4----2----4----2--------------------------------------------------------|

Song Flow:
Intro:2x
Verse:8x
Chorus:4x
Verse:8x
Chorus:8x
Verse:8x


| /  slide up
| \  slide down
| h  hammer-on
| p  pull-off
| ~  vibrato
| +  harmonic
| x  Mute note
============================================================================
Tap to rate this tab
 
# A B C D E F G H I J K L M N O P Q R S T U V W X Y Z