Song name
# A B C D E F G H I J K L M N O P Q R S T U V W X Y Z

Danzig - Skull Forrest tab

Help us improve GuitareTab! Take a short survey!
SKULL FORREST - Danzig
=============

Tuning: (C F Bb Eb G c)

main riff: 
C |------------------|    |-----------------| 
G |------------------|    |-----------------| 
Eb|------3-----3-----|    |-----------------| 
Bb|----2-----2-----3-| 4x |-----3-----3-----| 4x 
F |------------------|    |---3-----3-----3-| 
C |-0------0-----0---|    |-0-----0-----0---|  

 chorus: 
C |-0---0------------------| 
G |-0-----0----------------| 
Eb|-0-------0--------------| 
Bb|-2----------------------| 
F |-2-----------3-------2\-| 
C |-0---------------0------|
Related for Skull Forrest tab