Song name
# A B C D E F G H I J K L M N O P Q R S T U V W X Y Z

Danzig - When We Were Dead tab

WHEN WE WERE DEAD - Danzig
=================

Tuning: (C F Bb Eb G c)
 
intro 1: 
C |-0-----------------------------------| 
G |-0-----------------------------------| 
Eb|-0-----------------------------------| 
Bb|-2---------------------------3-----3-| 
F |-2------2h3-2----------------3-----3-| 
C |-0--------------3---5----0-0-1-0-0-1-|                
               +       +    pm->  pm->  
 intro 2: 
C |-0-----------------------------------| 
G |-0-----------------------------------| 
Eb|-0-----------------------------------| 
Bb|-2---------------------------5-----4-| 
F |-2------2h3-2----------------5-----4-| 
C |-0--------------3---5--------3-----2-|  
               +       +
 intro 3: 
C |(0)----------------------------------| 
G |(0)----------------------------------| 
Eb|(9)----7---9-------------------------| 
Bb|(9)----7---9-------------------------| 
F |(7)----5---7-------------------------| 
C |(0)------------------5~~~-----3~~~---| 
  Chord in parenthesis only played first time 

 verse riff: 
C |-------------------------------------| 
G |-----------------------------(0)-----| 
Eb|-7---9-----7---9--------------0------| 
Bb|-7---9-----7---9---------------------| 
F |-5---7-----5---7---------7-----------| 
C |---------------------5-----------3---|
Tap to rate this tab
# A B C D E F G H I J K L M N O P Q R S T U V W X Y Z