Song name
# A B C D E F G H I J K L M N O P Q R S T U V W X Y Z

Danzig - Satans Child tab

Tabbed by:Davey13
Email:bill_clinton_the_man@hotmail.com

Tuning:standard (EADGBe)


Intro/ chorus
e|----------------------------------|
B|----------------------------------|
G|----------------------------------|
D|--22---88-7-5555555---------------|
A|--22---88-7-5555555---------------|
E|--00---66-5-3333333---------------|

Verse 1
e|------------------------------|
B|------------------------------|
G|--------------------------8-7-|
D|---x7-x7-x7-x7-x7-x7-x7-x-8-7-|
A|---x7-x7-x7-x7-x7-x7-x7-x-6-5-|
E|---x5-x5-x5-x5-x5-x5-x5-x-----|


on third time of playing verse 1, guitar 2 plays sumthing like this
(u can do this with one guitar just use ur middle finger.)
verse 2 (2nd guitar) (optional)
e|--------------------------------|
B|--------------------------------|
G|----5b-5b-5fb-5b-5b-5b-5fb-4----|
D|--------------------------------|
A|--------------------------------|
E|--------------------------------|

song flow

Intro/chorus x4
Verse 1 x 2
verse 1 & verse 2 x 2
intro/chorus x 8
Verse 1 x 2
verse 1 & verse 2 x 2
intro/chorus x 16
finish on E

thihnks that right, im not too sure about the end of the intro/chorus bit, e-mail 
please! thanks
Tap to rate this tab
# A B C D E F G H I J K L M N O P Q R S T U V W X Y Z