Song name
# A B C D E F G H I J K L M N O P Q R S T U V W X Y Z

Danzig - Liberskull tab

-------------------------------------------------------------------------------
			    LiberSkull - Danzig
-------------------------------------------------------------------------------
Tabbed by:Trephination74
Email:

Tuning: Tune 2 steps down to C

  Heres a great simple song by Danzig....Once you get the timing down its a lot of fun 
play....Ease up on the distortion a bit as it tends to sound "Muddy" tuned down this low

intro
  Use slight vibrato on fretted notes....Pay attemtion to the timing of the notes
e|---------------------------------------------------------------------------|
B|---------------------------------------------------------------------------|
G|---------------------------------------------------------------------------|
D|---------------------------------------------------------------------------|
A|---------------------------------------------------------------------------|
E|--0-3-0-5-0-6-0-7-0---10-------0-3-0-5-0-6-0-7\1---------------------------|

1st Verse
   Here I'm Just giving you the chords...Play along with the CD for the actual 
simple but effective.....Don't forget the palm muting
e|---------------------------------------------------------------------------|
B|---------------------------------------------------------------------------|
G|---------------------------------------------------------------------------|
D|---------------------------------------------------------------------------|
A|--10---11------------------------------------------------------------------|
E|--8----9-------------------------------------------------------------------|

Second Verse is the same rhythm pattern with different chords
e|---------------------------------------------------------------------------|
B|---------------------------------------------------------------------------|
G|---------------------------------------------------------------------------|
D|---------------------------------------------------------------------------|
A|--7--8---------------------------------------------------------------------|
E|--5--6---------------------------------------------------------------------|

The third verse is the same as the first
e|---------------------------------------------------------------------------|
B|---------------------------------------------------------------------------|
G|---------------------------------------------------------------------------|
D|---------------------------------------------------------------------------|
A|-10--11--------------------------------------------------------------------|
E|-8---9---------------------------------------------------------------------|

Chorus
  No palm muting here just hit the chords and listen for the timing on the CD
   After the chorus start at the begining again and repeat
e|---------------------------------------------------------------------------|
B|---------------------------------------------------------------------------|
G|---------------------------------------------------------------------------|
D|-------5----6--------------------------------------------------------------|
A|-3-----3----4----8---------------------------------------------------------|
E|-1---------------6---------------------------------------------------------|


   The rhythm behind the solo is just the first verse chords.....Then it goes straight 
the second verse part


 The song ends with just the intro riff played repeatedly

e|---------------------------------------------------------------------------|
B|---------------------------------------------------------------------------|
G|---------------------------------------------------------------------------|
D|---------------------------------------------------------------------------|
A|---------------------------------------------------------------------------|
E|--0-3-0-5-0-6-0-7-0--10-------0-3-0-5-0-6-0-7\1----------------------------|

| /  slide up
| \  slide down
| h  hammer-on
| p  pull-off
| ~  vibrato
| +  harmonic
| x  Mute note
===============================================================================
Tap to rate this tab
 
# A B C D E F G H I J K L M N O P Q R S T U V W X Y Z