Song name
# A B C D E F G H I J K L M N O P Q R S T U V W X Y Z

Daphne Loves Derby - Middle Middle tab

This is a tab for the lead part of the song.

Standard Tuning
No Capo

Intro

e------|
b-7----|
g-4----|
d-5----|
a------|
e------|

Verse
This is the piano part.

e------|
b---7--|
g---4--|  x4
d-5----|
a------|
e------|

e---------|
b-----12--|
g-----9---|  x4
d-10------|
a---------|
e---------|

e-------|
b---10--|
g---9---|   x2
d-7-----|
a-------|
e-------|

e-------|
b----8--|
g----9--|   x2
d-10----|
a-------|
e-------|

e------|
b---7--|
g---4--|  x4
d-5----|
a------|
e------|

Repeat 1 more time

Pre-Chorus

e--------7--|
b------8----|
g----9------|
d-10--------|
a-----------|
e-----------|

e------------|
b-----8--10--|
g---9--------|
d-11---------|
a------------|
e------------|

Repeat that 1 more time


1st solo

e---------------------------------------|
b------8-------8--------10----12-----10-|
g----9-------9--------9-----------------|
d---------------------------------------|
a-10------10------10-------10----10-----|
e---------------------------------------|

e---------------------------------------|
b------8-------8--------10----12-----10-|
g----9-------9--------9-----------------|
d-10------10------10-------10----10-----|
a---------------------------------------|
e---------------------------------------|

e-------------------             e----------|
b------10-------12--             b------10--|
g----9--------9-----   x2 then   g----9-----|
d-11-------11-------             d-11-------|
a-------------------             a----------|
e-------------------             e----------|

e-------------------             e----------|
b------10-------12--             b------10--|
g----9--------9-----   x2 then   g----9-----|
d-10-------10-------             d-10-------|
a-------------------             a----------|
e-------------------             e----------|

Repeat Verse and then repeat Pre-Chorus

Chorus

Pre-Solo
figure out strumming on your own

e-----------------|
b-----------------|
g-12--11--16--14--|   x4
d-x---x---x---x---|
a-10--9---14--12--|
e-----------------|

Solo 2
e--------        e----------------|
b-8------        b-8--10s12s10--8-|
g---7--9-   x3   g----------------|
d--------        d----------------|
a--------        a----------------|
e--------        e----------------|

Repeat solo two 4x

and then you're done....

I'm pretty sure this is right.
This goes hand in hand with tony46085's tab of Middle Middle.
He has the rythm part tabbed this is the lead so yeah.


xoChinoxo
Tap to rate this tab
# A B C D E F G H I J K L M N O P Q R S T U V W X Y Z