Song name
# A B C D E F G H I J K L M N O P Q R S T U V W X Y Z

Daphne Loves Derby - Makers And Breakers tab

These are the tabs for the intro part of the song "Makers and Breakers."
This is the first tab i've ever made, so it might be messy.
Sorry(:


E----------------------------------------------------|
A----------------------------------------------------|
D---------0-0------0-------0-0-----0-----------------|
G---------------2---------------2----------2---------|
B----------------------2---------------2-------------|
E----------------------------------------------------|

E----------------------------------------------------|
A---------3--3-----3------3--3------3----------------|
D----------------------------------------------------|
G---------------2---------------2----------2---------|
B----------------------2---------------2-------------|
E----------------------------------------------------|


(repeat twice.)

k there you go.
Tap to rate this tab
# A B C D E F G H I J K L M N O P Q R S T U V W X Y Z