Guitaretab - guitar tabs
Song name
# A B C D E F G H I J K L M N O P Q R S T U V W X Y Z

Daphne Loves Derby - Patterns And How They Change The Visible World tab

First Tab......Brandon P........
Myspace - www.myspace.com/diagnosedasbrokenhearted

x-Muted Strike
h-Hammer On
/-Slide Up
\-Slide Down

Intro
e|--x-x-----3-x-x-----5-x-x--5/7\5--3--5--3--5|
B|--x-x-0h1---x-x-1/3---x-x--3/5\3--3--3--3--5|
G|--x-x-0-----x-x-----------------------------|
D|--x-x-2-----x-x-----------------------------|
A|--x-x-3-----x-x-----------------------------|
E|--x-x-------x-x-----------------------------|

e|------3-x-x------5--3--0~-|
B|--0h1---x-x-1/3--3--3--1~-|
G|--0-----x-x---------------|
D|--2-----x-x---------------|
A|--3-----x-x---------------|
E|--------x-x---------------|x1

[ Tab from: http://www.guitaretab.com/d/daphne-loves-derby/68898.html ]
Verse
e|--3--3--x--3--3--3--3--x--0--0--0--0--0--0--0--0--0--0|
B|--3--3--x--3--3--3--3--x--1--1--1--1--0--0--0--0--0--0|
G|--0--0--x--0--2--2--2--x--0--0--0--0--0--0--0--0--0--0|
D|--2--2--x--2--0--0--0--x--2--2--2--2--0--0--0--0--0--0|
A|--3--3--x--3--2--2--2--x--0--0--0--0--0--0--0--0--0--0|
E|--------x--------------x------------------------------|x3

e|--3--3--x--3--3--3--3--x--0--0--0--0--0--0--0|
B|--3--3--x--3--3--3--3--x--1--1--1--1--1--1--1|
G|--0--0--x--0--2--2--2--x--0--0--0--0--0--0--0|
D|--2--2--x--2--0--0--0--x--2--2--2--2--2--2--2|
A|--3--3--x--3--2--2--2--x--0--0--0--0--0--0--0|
E|--------x--------------x---------------------|


Chorus
e|--3~----3~----------------|
B|--3~----3~----------2~----|
G|--0~----0~----0~----------|
D|--0~----2~----2~----2~----|
A|--2~----3~----3~----------|
E|--3~----------------------|

e|--3~-------|
B|--3~---2~--|
G|--0~-------|
D|--2~---2~--|
A|--3~-------|
E|-----------|    

Repeat Intro

Repeat Verse

Repeat Chorus

Bridge
e|--0--0--0--0|
B|--0--0--0--0|
G|--0--0--0--0|
D|--0--0--0--0|
A|--0--0--0--0|
E|--0--0--0--0|

Repeat Chorus

Lyrics - Google them you lazy jerk....
Related for Patterns And How They Change The Visible World tab
Advertisement will be closed in 10 seconds