Song name
# A B C D E F G H I J K L M N O P Q R S T U V W X Y Z

Daphne Loves Derby - Best Part About It Honey tab

Daphne Loves Derby
The Best Part About It Honey
Godd Night, Witness Light

Tuning : Half Step down

Intro
|---0-----0-----| x2
|---0-----0-----|
|--13---13------|
|--11---11------|
|--13---12------|
|---x----x------|

|--0----0--| x2
|--0---10--|
|--8----9--|
|--6---10--|
|--7----0--|
|--X----X--|

Verse 1
|--0---0---0---0--| x2
|--0---0---0---0--|
|--8---7---6---5--|
|--6---6---6---4--|
|--7---7---X---0--|
|--X---X---5---X--|

Chorus
|--0---2---0---0--| x2
|--0---2---2---0--|
|--6---3---1---4--|
|--6---2---2---2--|
|--4---4---0---3--|
|--X---2---X---X--|

Verse 2
|--0----0--| x4
|--0---10--|
|--8----9--|
|--6---10--|
|--7----0--|
|--X----X--|
Palm Mute

|---0-----0-----| x2
|---0-----0-----|
|--13---13------|
|--11---11------|
|--13---12------|
|---x----x------|

Chorus

then jam on these 2 chords
|--0----0--| x4
|--0---10--|
|--8----9--|
|--6---10--|
|--7----0--|
|--X----X--|

For the bridge part where Kenny starts singing "I'm not ready" just play verse 1.

Chorus except you end on that Amaj7.
Tap to rate this tab
# A B C D E F G H I J K L M N O P Q R S T U V W X Y Z