Song name
# A B C D E F G H I J K L M N O P Q R S T U V W X Y Z

Daphne Loves Derby - You Versus The Sea Tab tab

capo 1st fret

e-------4-0-4h5-4h5-4-0----0--0-0h2-0h2-0-4-|
B-0h2---------------------0-----------------|
G-----2------------------2------------------|
D-------------------------------------------|
A-------------------------------------------|
E-------------------------------------------|

e-------4h5-4-4--0h2-0h2-4h5-4--------------|
B-0h2---------------------------------------|
G-----2-------------------------------------|
D-------------------------------------------|
A-------------------------------------------|
E-------------------------------------------|

verse/chorus/bridge

E-4-
B-3-
G-2-
D-0-
A-0-
E-0-

E-0-
B-0-
G-6-
D-7-
A-5-
E-0-
Tap to rate this tab
# A B C D E F G H I J K L M N O P Q R S T U V W X Y Z