Song name
# A B C D E F G H I J K L M N O P Q R S T U V W X Y Z

Dappy - Rockstar tab

-----------------------------------------------------------------------------
                       Dappy ft Brian May - Rockstar
-----------------------------------------------------------------------------

Tabbed By: jimbob3452012
Difficulty: Novice
Tuning: Standard

Effects and Techniques To Use:
- Reverb
- Phaser
- Slight Delay
- Compressor
- Lots of Vibrato


e-------------------------------------------------------------------------|
B-----7b8b7---4------------------------------------4------4------4-7------|
G---4-----------6-4------------------------4-6-6b8----6b8----6b8----------|
D-------------------6-4------4-6-------4-6--------------------------------|
A-------------------------6-----------------------------------------------|
E-------------------------------------------------------------------------|

e-------------------------------------7-------7-------7-------7-------7---|
B---4---------------------------------------------------------------------|
G-----6-4-----------6b8b6-----6b8b6-4-----4-4-----4-4-----4-4-----4-4-----|
D---------6-4-6---6-------------------------------------------------------|
A-------------------------------------------------------------------------|
E-------------------------------------------------------------------------|

e---6b7b6-4------------------------7-7---------7-7---------7-7------------|
B-------------7-4-7b9b7------10b12-------10b12-------10b12----------------|
G-------------------------------------------------------------------------|
D-------------------------------------------------------------------------|
A-------------------------------------------------------------------------|
E-------------------------------------------------------------------------|

e---9b11b9-7-6-------9b11b9---------9b11b9-7-6-7--------------------------|
B--------------9---7------------7-7---------------------------------------|
G-------------------------------------------------------------------------|
D-------------------------------------------------------------------------|
A-------------------------------------------------------------------------|
E-------------------------------------------------------------------------|
Tap to rate this tab
# A B C D E F G H I J K L M N O P Q R S T U V W X Y Z