Song name
# A B C D E F G H I J K L M N O P Q R S T U V W X Y Z

Darden Smith - Ashes To Ashes tab

Help us improve GuitareTab! Take a short survey!
Ashes to ashes - Burden of a day

Tuning:C#G#C#F#A#D#

Guitar 1 [0:00]
e|-----------------------------------------|-----------------|
B|-----------------------------------------|-----------------|
G|-----------------------------------------|-----5/7---------|
D|-33333333225555555533777777775588775577--|----------[x8]---|
A|-----------------------------------------|-----3/5---------|
E|-----------------------------------------|-000-------------|

Guitar 2 [0:00]
e|------------------------------------------------------|-------------------|
B|------------------------------------------------------|-------------------|
G|------------------------------------------------------|-----8/10----------|
D|-777777755888888887710101010101010108812121010881010--|-----------[x8]----|
A|------------------------------------------------------|-----7/8-----------|
E|------------------------------------------------------|-000---------------|

Guitar 1 [0:24]
e|-------------------|
B|-------------------|
G|-------------------|
D|-------------------|
A|-0~--0~---8~--8~---|
E|-0~--0~---8~--8~---|

e|--------------------------------------------------------------|
B|--------------------------------------------------------[X2]--|
G|--------------------------------------------------------------|
D|--------------------------------------------------------------|
A|-0-0-0-000-000--0-0-0-000-000--8-8-8-888-888--8-8-8-888-888---|
E|-0-0-0-000-000--0-0-0-000-000--8-8-8-888-888--8-8-8-888-888---|
   . . . ... ...  . . . ... ...  . . . ... ...  . . . ... ...

Guitar 2 [0:24]
e|------------------|--------------------------|
B|------------------|--------------------------|
G|------------------|--------------------------|
D|--7h8p7-0-5p0-3p0-|--10h12p10-0-8p0-7p0------|
A|------------------|--------------------------|
E|------------------|--------------------------|

Guitar 1&2
   [0:56]
e|-------|-----------------------------------------|
B|-------|-----------------------------------------|
G|-------|-----------------------------------------|
D|-------|-----------------------------------------|
A|-0~-0~-|--8-8-8p7-10-10-10p8-5-5-5p7-8-8-8p7~----|
E|-0~-0~-|--8-8-8p7-10-10-10p8-5-5-5p7-8-8-8p7~----|

e|----------------------------------------------|
B|----------------------------------------------|
G|----------------------------------------------|
D|----------------------------------------------|
A|-0---3h5--0----3h5--0----3h5--0----3h5--------|
E|-000-3h5-00-00-3h5-00-00-3h5-00-00-3h5--------|
    ..     .  ..     .  ..     .  ..

Guitar 2 [1:33]
e|-----------------------------------------|--|
B|-----------------------------------------|--|
G|----10--9----------------10--9-----------|--|
D|-----------10-10h12-------------10-10h12-|--|
A|-0--------------------0------------------|--|
E|-000--00-00--0-----00-000--00-00---------|--|
    ..  .. ..  .     ..  ..  .. ..

e|--------------------------------------------|
B|--------------------------------------------|
G|----10--9----------------10--9--------------|
D|-----------10-10h12-------------10-10h12----|
A|-0--------------------0---------------------|
E|-000--00-00--0-----00-000--00-00--0------00-|
    ..  .. ..  .     ..  ..  .. ..  .      ..

e|-----------------------------------------|---------|
B|---------------------------------------------------|Last time]
G|----10--9----------------10--9-----------|---------|
D|-----------10-10h12-------------10-10h12-|---------|
A|-8--------------------8------------------|----8~---|
E|-888--88-88--8-----88-888--88-88---------|-00-8~---|
    ..  .. ..  .     ..  ..  .. ..

Guitar 1
   [1:33]      [1:39]
e|----------|----------------------------------------------|
B|----------|----------------------------------------------|
G|----------|----------------------------------------------|
D|----------|-----12--10---------------12--10--------------|
A|-8~--8----|---0---------12-12h13---0---------12-12h13----|
E|-8~--8----|---00--00--00--0-----00-000-00--0----------00-|
                 .  ..  ..  .     ..  .. ..  .          ..

e|--------------------------------------------------|---------|
B|------------------------------------------------------------|Last time]
G|--------------------------------------------------|---------|
D|----12--10----------------12--10------------------|---------|
A|-8----------12-12h13---8----------12--12h13-------|----8~---|
E|-888--88--88--8-----88-888--88--88--8-------------|-00-8~---|
    ..  ..  ..  .     ..  ..  ..  ..  .               ..


Guitar 1 [1:56]              [2:11]
e|-------------------------|-------------------------|
B|-------------------------|-------------------------|
G|-------------------------|------10-9---------------|
D|-------------------------|--7-8-----10-12-10-8-----|
A|-8h10-0h7h8-0h5h7-0h3h5--|-------------------------|
E|-8h10-0h7h8-0h5h7-0h3h5--|-------------------------|

Guitar 2 [1:56]
e|--------------------|
B|--------------------|
G|--------------------|
D|--------------------|
A|-0000-00-0000-------|
E|-0000-00-0000-3b----|
   .... .. ....

Guitar 1   [2:21]          x2
e|-------------------------|--------------------------|
B|------------------[x2]---|--------------[x2]--------|
G|-------------------------|--------------------------|
D|-------10------10--10p12-|-------10------10--10p12--|
A|---12------12------------|---12------12-------------|
E|-88--88--88--88--88------|-00--00--00--00--00-------|
   ..  ..  ..  ..  ..        ..  ..  ..  ..  ..

Guitar 2  [2:21]        x2
e|--------------[x2]----|---------------[x2]----|
B|----------------------|-----------------------|
G|-------9------9--9p10-|-------9------9--9p10--|
D|---10-----10----------|---10-----10-----------|
A|----------------------|-----------------------|
E|-88--88-88--88-88-----|-00--00-00--00-00------|
   ..  .. ..  .. ..       ..  .. ..  .. ..

Guitar 1&2 [2:43]
e|--------|
B|--------|
G|--------|
D|--------|
A|--0~----|
E|--0~----|

    [2:46]
e|----------------------------------------------|
B|----------------------------------------------|
G|----------------------------------------------|
D|----------------------------------------------|
A|-8-[x16]-0-[x8]-3-[x8]-8-[x16]-3-[x8]-10-[x8]-|
E|-8-------0------3------8-------3------10------|

Guitar 2 comes halfway in with this x2
      [3:08]
e|---------------------------------|
B|-----------------13--------------|
G|----10-[x5]--9-10----[x5]--------|
D|-7-8-----------------------------|
A|---------------------------------|
E|---------------------------------|

Guitar 1 [3:19]
e|--------------------------------------------------------------|
B|--------------------------------------------------------------|
G|--------------------------------------------------------------|
D|--------------------------------------------------------------|
A|-0-0-0-000-000--0-0-0-000-000--8-8-8-888-888--8-8-8-888-888---|
E|-0-0-0-000-000--0-0-0-000-000--8-8-8-888-888--8-8-8-888-888---|
   . . . ... ...  . . . ... ...  . . . ... ...  . . . ... ...

Guitar 2 [3:19]
e|------------------|--------------------------|
B|------------------|--------------------------|
G|------------------|--------------------------|
D|--7h8p7-0-5p0-3p0-|--10h12p10-0-8p0-7p0------|
A|------------------|--------------------------|
E|------------------|--------------------------|
Related for Ashes To Ashes tab