Song name
# A B C D E F G H I J K L M N O P Q R S T U V W X Y Z

Dario G - Voices tab

e-14-12--------------14-----------------------|
B-------10-----8-10-----17-15-20--12-13-14-15-|
G-----------11--------------------------------|
D---------------------------------------------|
A---------------------------------------------|
E---------------------------------------------|


The chords to play look like this

e-5--5-5-5--3--3-3--|
B-5--5-5-5--3--3-3--|   4x
G-7--7-7-7--0--0-0--|
D-------------------|
A-------------------|
E-------------------|

e-7--7-7-7--8--8-8-8-|
B-8--8-8-8--8--8-8-8-|  2x
G-7--7-7-7--7--7-7-7-|
D--------------------|
A--------------------|
E--------------------|

 That's it I hope, it helps.
Tap to rate this tab
 
# A B C D E F G H I J K L M N O P Q R S T U V W X Y Z