Song name
# A B C D E F G H I J K L M N O P Q R S T U V W X Y Z

Dario G - Carnaval De Paris tab

I just chose intro because the intro is more or less the main riddle of the song. Hope you like it.

Standard Tuning: 

|--11-----------11----------11----------11---------11-----------|
|--------13-----------13----------13----------13-------13---15--|
|---------------------------------------------------------------|
|---------------------------------------------------------------|
|---------------------------------------------------------------|
|---------------------------------------------------------------|

|--------13----11-10-------------------13-11-10-----------------|
|--15-16-------------16-13-------13-15----------13--------------|
|-----------------------------15--------------------------------|
|---------------------------------------------------------------|
|---------------------------------------------------------------|
|---------------------------------------------------------------|

Enjoy those six silver strings!
Draygan
Tap to rate this tab
 
# A B C D E F G H I J K L M N O P Q R S T U V W X Y Z