Song name
# A B C D E F G H I J K L M N O P Q R S T U V W X Y Z

Darius Rucker - It Wont Be Like This For Long tab

Guitarhulk101
Email me at rrjr2011@yahoo.com for tips and hints and watever.
This is my first tab, so i hope its right.
on the part were it says 666br, just strumm the 6's and bend down and then up on the 
6. that part was confusing to type.

e|--------------------------------------------------------------------------|
b|---4/5-4------------------------------------------------------------------|
g|----------4/6-4-----------------------------------------------------------|
D|-----------------4/6-666br----4-0-4/6-------------------------------------|
A|--------------------------------------------------------------------------|
E|--------------------------------------------------------------------------|

e|--------------------------------------------------------------------------|
b|---4/5-4------------------------------------------------------------------|
g|----------4/6-4--------------------2--------------------------------------|
D|-----------------4/6-666br----4-0--2--------------------------------------|
A|-----------------------------------0--------------------------------------|
E|--------------------------------------------------------------------------|
Tap to rate this tab
 
# A B C D E F G H I J K L M N O P Q R S T U V W X Y Z