Song name
# A B C D E F G H I J K L M N O P Q R S T U V W X Y Z

Darius Rucker - Wagon Wheel tab

Ok so this is the intro (played by the banjo) transposed on guitar ! (Sorry for my bad english...)

Chords without capo :

E|--5--7--2--5--|
B|--5--9--2--7--|
G|--6--9--2--7--|
D|--7--9--4--7--|
A|--7--7--4--5--|
E|--5-----2-----|


E|------7/9---12------12------------------|
B|----------------12------10--------------|
G|----------------------------9-9--9/11---|
D|----------------------------------------|
A|----------------------------------------|
E|----------------------------------------|


E|------7/9--9--7------9-7---7---------------------------------------------|
B|-----------------10-----------10--9---5/7--7--7--5-----------------------|
G|----------------------------------------------------6--------------------|
D|-------------------------------------------------------7/9--9-7-9-7------|
A|---------------------------------------------------------------------9---|
E|--------------------------------------------------------------------------|
Tap to rate this tab
# A B C D E F G H I J K L M N O P Q R S T U V W X Y Z