Song name
# A B C D E F G H I J K L M N O P Q R S T U V W X Y Z

Darius Rucker - Lost In You chords

Highlighted       Show chord diagrams
Intro and after chorus riff
(NO CAPO FOR INTRO)
E|---------------------------------------------------------------------|
B|---------------------------------------------------------------------|
G|---------------------------------------------------------------------|
D|--------------------------------------------3/5--3p0-----------------|
A|-------1/3--3/5\3\1----------------------1------------3\1--0--1p0h1--|
E|--1h3----------------3p1--1h3/6--3\1--3------------------------------|

_____________________________________________________________________________

Intro w/ Capo on 3rd
-----------------------------------------------------------------------------
                        Lost in You  Darius Rucker
----------------------------------------------------------------------------
Tabbed by: Michael H
E-mail:michael96h@yahoo.com

Tuning: Standard (capo on 3 notes relative)

e|---------------------------------------------------------------------------|
B|--------------------------------------------3------------------------------|
G|------0-2-2/4\2p0------0----------0---2-2/4---4\2p0--0---------------------|
D|--0h2--------------2p0----2p0-0h2-------------------2----------------------|
A|---------------------------------------------------------------------------|
E|---------------------------------------------------------------------------|

CAPO ON 3rd

Chords: Am,C,G,D
[ Verse: ]
 Am           C
Spring break, tan skin
 G            D
Lord I can't remember when
 Am      C
I fell, so fast
G                D
Knowing it could never last

[CHORUS:]
Am                C             G            D
I got lost in the rhythm of the waves of the ocean
Am          C      G   D
Lost in the sunset too
Am                 C            G
I got lost in your eyes and the time
          D
Don't you know it
 Am         C       G
Baby, I got lost in you

INTRO

[VERSE:]
 Am            C
Five days, four nights
  G
A smile I will remember
         D
For the rest of my life
 Am                C
How sweet was your kiss
 G                      D
I still taste it on my lips

[CHORUS:]

Am                C             G            D
I got lost in the rhythm of the waves of the ocean
Am          C      G   D
Lost in the sunset too
Am                 C            G
I got lost in your eyes and the time
          D
Don't you know it
 Am         C       G
Baby, I got lost in you   (D)
Baby i got lost in you, yeah!

Solo
       Am           C
Packed car, your tears
              G                 D
I said girl I hate to leave you here
        Am      C
I'll be back, I lied
 G
It's been all these years
                 D
I still hear your goodbye

[CHORUS]

I got lost in the rhythm of the waves of the ocean
Lost in the sunset too
I got lost in your eyes and the time
Don't you know it
Baby I got lost in you

Am                C             G             D
I got lost in the rhythm of the waves of the ocean
Am            C          G      D
Lost in the sunset too, yeah!
Am                 C            G
I got lost in your eyes and the time
          D
Don't you know it


Am         C       G     D
Baby I got lost in you, yeah

Baby I got lost in you

Oh baby, I got lost in you

Intro one more time

THE END


*any errors help is appreciated as this is my first tab*
Tap to rate this tab
# A B C D E F G H I J K L M N O P Q R S T U V W X Y Z