Song name
# A B C D E F G H I J K L M N O P Q R S T U V W X Y Z

Darius - Hero tab

Highlighted       Show chord diagrams
			     hero
-------------------------------------------------------------------------------
Tabbed by:Toni 101
Email:

Tuning:c tuning

it starts off with a g
verus
               G                  em
would you dance if i asked you to dance.
                 c             d
and would you lie on my sholder
               G                  em
and i went to deep. have i lost my mind
        c            d       G
i would heard you here tonight.

chourus

G         d              em  c
and i can be your hero baby
G         d            em c
i can kiss away the pain
G      d           em c
i will stand by you forever
G       d       em         c
you can take my breath away


verus use the same chords as the first verse

chourus

G         d              em  c
and i can be your hero baby
G         d            em c
i can kiss away the pain
G      d           em c
i will stand by you forever
G       d       em         c
you can take my breath away


solo
use the verus chords while playing the solo

e|-----------------------------------------------------------------------------|
B|-----------------------------------------------------------------------------|
G|-----------------------------------------------------------------------------|
D|----0-0-0-2-----------------2-0-0----0-0-0-2--------------2-2-0-0-0----------|
A|-------------0-0---0-0-0---------------------0-1-1-1-1-0-------------3-0-----|
E|-----------------------------------------------------------------------------|


e|-----------------------------------------------------------------------------|
B|-----------------------------------------------------------------------------|
G|-----------------------------------------------------------------------------|
D|----0-0-0------------2------------2-0-0--------------------------------------|
A|-----------3-0-----------0-1-0-----------------------------------------------|
E|-----------------------------------------------------------------------------|

 G                      em  c  d

I just want to hold you

              G                  em
and i went to deep. have i lost my mind
        c            d       G
i would heard you here tonight.

chourus

G         d              em  c
and i can be your hero baby
G         d            em c
i can kiss away the pain
G      d           em c
i will stand by you forever
G       d       em         c
you can take my breath away

ending

G          d         em    c
and i can beee your heeroo
G          d                  em c
and i could kiss away the pain
G      d           em c
i will stand by you forever
G       d       em         c
you can take my breath away

G       d       em         c
you can take my breath away

G        d        em   c  G
i can hear you here

thats it!!!!!!!!!!!!!!!!!!!!
Tap to rate this tab
 
# A B C D E F G H I J K L M N O P Q R S T U V W X Y Z