Song name
# A B C D E F G H I J K L M N O P Q R S T U V W X Y Z

Dark Age - The Dying Art Of Recreation tab

Dark Age
The Dying Art of Recreation


Csis Standard


Beast song from Minus Exitus (2008) album. This is my first tab, as I'm 
still kind of beginner so hopefully you don't excpect these to be 
perfect :) If you have in mind how to correct some part, please tell and I'll correct it!

If it helps you can watch me playing this song here:
http://www.youtube.com/watch?v=Djk3qOe2cyw


h - Hammer on
p - Pull off
/ - slide up
\ - slide down
. - Palm mute
~ - Vibrato
ph- Pinch harmonic

 
 Main Riff 1
|-----------------------------------------------------------------------|
|-----------------------------------------------------------------------|
|-----------------------------------------------------------------------|
|-2-2-2---2-2-2-2----3-3-3---3-3-3-3---3--------------------------------|
|-2-2-2---2-2-2-2----3-3-3---3-3-3-3---1--------------------------------|
|-0-0-0---0-0-0-0----1-1-1---1-1-1-1---1--------------------------------| X2

 Main Riff 2
|-----------------------------------------------------------------------|
|-----------------------------------------------------------------------|
|-----------------------------------------------------------------------|
|-3------------3-------------5-------------2----------------------------|
|-2--2---------2--2----------2--2----------2--2-------------------------|
|-0--0-0-0-0-0-0--0-0-0-0-0--0--0-0-0-0-0--0--0-0-0-0-0-----------------| X2
      . . . .      . . . .       . . . .       . . . .

Main Riff 1 X2
Main Riff 2 X2


 Chorus 1
|-12-0-0-12-0-0-12-0-10h-12-0-10h-12-0-0-7-0-0-5-0-0-7-0-0-5-0-7-0-5----|
|-----------------------------------------------------------------------|
|-----------------------------------------------------------------------|
|-----------------------------------------------------------------------|
|-----------------------------------------------------------------------|
|-----------------------------------------------------------------------|

|-12-0-0-12-0-0-12-0-10h-12-0-10h-12-0-0-7-0-0-5-0-0-8-0-0-5-0-7-0-5----|
|-----------------------------------------------------------------------|
|-----------------------------------------------------------------------|
|-----------------------------------------------------------------------|
|-----------------------------------------------------------------------|
|-----------------------------------------------------------------------|
Second part here isn't correct, I would be glad if someone corrects that

Main Riff 1 X2
Main Riff 2 X2
Chorus      X2

 
 Breakdown 1
|-----------------------------------------------------------------------|
|-----------------------------------------------------------------------|
|-----------------------------------------------------------------------|
|-2----------------------------------2----------------------------------|
|-2--222-222---8p-7--5---5h-7--------2--222-222-------------------------|
|-0--000-000-0-----0---0-------------0--000-000--5~----7~---------------| X3
     ... ... .     .   .                ... ...

 Breakdown 2
|-----------------------------------------------------------------------|
|-----------------------------------------------------------------------|
|-----------------------------------------------------------------------|
|-----------------------------------------------------------------------|
|-9/10---9/10---9/10---9/10-12-12-12-12---------------------------------|
|-7/8--0-7/8--0-7/8--0 7/8--10-10-10-10---------------------------------| X2
                                                 

 Breakdown 3 (Solo)
|-----------------------------------------------------------------------|
|-----------------------------------------------------------------------|
|-----------------------------------------------------------------------|
|-9--7-9------9--7-9------9------------9--7-9-----9--7-9----------------|
|-7--5-7------7--5-7------7--9-9-9-9---7--5-7-----7--5-7-----9-9-10-10--|
|--------0-0--------0-0----0-7-7-7-7----------0-0--------0-0-7-7-8--8---|
         . .        . .    .                  . .        . .

|-----------------------------------------------------------------------|
|-----------------------------------------------------------------------|
|-----------------------------------------------------------------------|
|-12----12----12----12----14----14----14-----14-------------------------|
|-10----10----10----10----12----12----12-----12---14-14-14-14-14-14-----|
|---0000--0000--0000--0000--0000--0000--0000---00-12-12-12-12-12-12-----|
    ....  ....  ....  ....  ....  ....  ....   ..

|-----------------------------------------------------------------------|
|-----------------------------------------------------------------------|
|-----------------------------------------------------------------------|
|-2---------------------------------------------------------------------|
|-2--222-222----8p-7---5---5h-7-----------------------------------------|
|-0--000-000--0------0---0----------------------------------------------| X4
     ... ...  .      .   .


|-----------------------------------------------------------------------|
|-----------------------------------------------------------------------|
|-----------------------------------------------------------------------|
|-2-2-2---2-2----3-3-3---3-3--------------------------------------------|
|-2-2-2---2-2----3-3-3---3-3--------------------------------------------|
|-0-0-0---0-0----1-1-1---1-1--------------------------------------------|


Bass solo


|-----------------------------------------------------------------------|
|-----------------------------------------------------------------------|
|-----------------------------------------------------------------------|
|-9-------12-------7----------------------------------------------------|
|-9-------12-------7----------------------------------------------------|
|-7-------10-------5----------------------------------------------------|


Breakdown 3


|-----------------------------------------------------------------------|
|-----------------------------------------------------------------------|
|-9--7-9------9--7-9------9---------------------------------------------|
|-----------------------------------------------------------------------|
|-7--5-7------7--5-7------7--9-9-9-9-10-10------------------------------|
|--------0-0--------0-0----0-7-7-7-7-8--8-------------------------------|
         . .        . .              

|-----------------------------------------------------------------------|
|-----------------------------------------------------------------------|
|-9--7-9-----9--7-9-----------------------------------------------------|
|-----------------------------------------------------------------------|
|-7--5-7-----7--5-7-----9-9-9-9-10-10-----------------------------------|
|--------0-0--------0-0-7-7-7-7-8--8------------------------------------|
         . .        . .

|-----------------------------------------------------------------------|
|-----------------------------------------------------------------------|
|-----------------------------------------------------------------------|
|-12--------------12-----------12---------12----------------------------|
|-10--------------10-----------10---------10----------------------------|
|---0-0--0--0--0-----0-0-0-0-0----0-0-0-0-------------------------------|
    . .  .  .  .     . . . . .    . . . .


|-----------------------------------------------------------------------|
|-----------------------------------------------------------------------|
|-----------------------------------------------------------------------|
|-14--------14---------14---------14------------------------------------|
|-12--------12---------12---------12--14-14-14-14-14-14-----------------|
|---0-0-0-0----0-0-0-0----0-0-0-0-----12-12-12-12-12-12-----------------|
    .  .  .  .   .  .  .  .   .  .  .  .   .  . 

|-----------------------------------------------------------------------|
|-----------------------------------------------------------------------|
|-----------------------------------------------------------------------|
|----------------------------------------------7--7---------------------|
|-9--9---------7--9---------9--9---------9--9--5--5---------------------|
|-7--7-0-0-0-0-7--9-0-0-0-0-7--7-0-0-0-0-7--7---------------------------| X2
       . . . .      . . . .      . . . .

 Chorus 2
|-----------------------------------------------------------------------|
|-12-0-0-12-0-0-12-0-10h-12-0-10h-12-0-0-7-0-0-5-0-0-7-0-0-5-0-7-0-5-0--|
|-----------------------------------------------------------------------|
|-----------------------------------------------------------------------|
|-----------------------------------------------------------------------|
|-----------------------------------------------------------------------|


|-----------------------------------------------------------------------|
|-12-0-0-12-0-0-12-0-10h-12-0-10h-12-0-0-7-0-0-5-0-0-8-0-0-5-0-7-0-5-0--|
|-----------------------------------------------------------------------|
|-----------------------------------------------------------------------|
|-----------------------------------------------------------------------|
|-----------------------------------------------------------------------|

Chorus 1  X2


 Outro
|-----------------------------------------------------------------------|
|-----------------------------------------------------------------------|
|-----------------------------------------------------------------------|
|-2-2-2---2-2----3-3-3---3-3-----2--------------------------------------|
|-2-2-2---2-2----3-3-3---3-3-----2--------------------------------------|
|-0-0-0---0-0----1-1-1---1-1-----0--------------------------------------|
Tap to rate this tab
 
# A B C D E F G H I J K L M N O P Q R S T U V W X Y Z