Song name
# A B C D E F G H I J K L M N O P Q R S T U V W X Y Z

Dark End - Light Of Night tab

http://adarkend.weebly.com/index.html
Song: Light Of Night
Band: A Dark End
Album: To The Last Drop

Intro
e|-1~------------------------------|---------------------------------|
B|-3~------------------------------|-3b------------------------------|
G|-2~------------------------------|-2b------------------------------|
D|-0~------------------------------|-0~------------------------------|
A|---------------------------------|---------------------------------|
D|---------------------------------|---------------------------------|

(Guitar 1)
e|-1~------------------------------|---------------------------------|
B|-3~------------------------------|-3b------------------------------|
G|-2~------------------------------|-2b------------------------------|
D|-0~------------------------------|-0~------------------------------|
A|---------------------------------|---------------------------------|
D|---------------------------------|---------------------------------|
(Guitar 2)
e|---------------------------------|---------------------------------|
B|---------------------------------|---------------------------------|
G|/7~------8--7--5-7p5h7~------/(8)|-8~------10-8--7-7h8p7\5~--------|
D|---------------------------------|---------------------------------|
A|---------------------------------|---------------------------------|
D|---------------------------------|---------------------------------|

(Guitar 1)
e|-1~------------------------------|---------------------------------|
B|-3~------------------------------|-3b------------------------------|
G|-2~------------------------------|-2b------------------------------|
D|-0~------------------------------|-0~------------------------------|
A|---------------------------------|---------------------------------|
D|---------------------------------|---------------------------------|
(Guitar 2)
e|---------------------------------|---------------------------------|
B|---------------------------------|---------------------------------|
G|/12~---13-12-10-12p10h12~---/(12)|-12b----/14b----/15b----/17b-----|
D|---------------------------------|---------------------------------|
A|---------------------------------|---------------------------------|
D|---------------------------------|---------------------------------|

Interlude
(Guitar 1)
e|---------------------------------|---------------------------------|
B|---------------------------------|---------------------------------|
G|-----------------5---5-5---5-5-5-|-3---3-3---3-3-3-2---2-2---2-2-2-|
D|-0---0-0---0-0-0-5---5-5---5-5-5-|-3---3-3---3-3-3-2---2-2---2-2-2-|
A|-0---0-0---0-0-0-3---3-3---3-3-3-|-1---1-1---1-1-1-0---0-0---0-0-0-|
D|-0---0-0---0-0-0-----------------|---------------------------------|
(Guitar 2)
e|---------------------------------|---------------------------------|
B|/15~-----------------------------|---------------------------------|
G|---------------------------------|---------------------------------|
D|---------------------------------|---------------------------------|
A|---------------------------------|---------------------------------|
D|---------------------------------|---------------------------------|


e|---------------------------------|---------------------------------|
B|---------------------------------|---------------------------------|
G|-----------------5---5-5---5-5-5-|-3---3-3---3-3-3-8---8-8---8-8-8-|
D|-0---0-0---0-0-0-5---5-5---5-5-5-|-3---3-3---3-3-3-8---8-8---8-8-8-|
A|-0---0-0---0-0-0-3---3-3---3-3-3-|-1---1-1---1-1-1-6---6-6---6-6-6-|
D|-0---0-0---0-0-0-----------------|---------------------------------|

e|---------------------------------|---------------------------------|
B|---------------------------------|---------------------------------|
G|-----------------5---5-5---5-5-5-|-3---3-3---3-3-3-2---2-2---2-2-2-|
D|-0---0-0---0-0-0-5---5-5---5-5-5-|-3---3-3---3-3-3-2---2-2---2-2-2-|
A|-0---0-0---0-0-0-3---3-3---3-3-3-|-1---1-1---1-1-1-0---0-0---0-0-0-|
D|-0---0-0---0-0-0-----------------|---------------------------------|

e|---------------------------------|---------------------------------|
B|---------------------------------|---------------------------------|
G|-----------------5---5-5---5-5-5-|-3---3-3---3-3-3-8---8-8---8-8-8-|
D|-0---0-0---0-0-0-5---5-5---5-5-5-|-3---3-3---3-3-3-8---8-8---8-8-8-|
A|-0---0-0---0-0-0-3---3-3---3-3-3-|-1---1-1---1-1-1-6---6-6---6-6-6-|
D|-0---0-0---0-0-0-----------------|---------------------------------|

Verse 1
e|---------------------------------|---------------------------------|
B|---------------------------------|---------------------------------|
G|-----------------5---5-5---5-5-5-|-3---3-3---3-3-3-2---2-2---2-2-2-|
D|-0---0-0---0-0-0-5---5-5---5-5-5-|-3---3-3---3-3-3-2---2-2---2-2-2-|
A|-0---0-0---0-0-0-3---3-3---3-3-3-|-1---1-1---1-1-1-0---0-0---0-0-0-|
D|-0---0-0---0-0-0-----------------|---------------------------------|
                                                                     rpt x2
e|---------------------------------|---------------------------------|
B|---------------------------------|---------------------------------|
G|-----------------5---5-5---5-5-5-|-3---3-3---3-3-3-8---8-8---8-8-8-|
D|-0---0-0---0-0-0-5---5-5---5-5-5-|-3---3-3---3-3-3-8---8-8---8-8-8-|
A|-0---0-0---0-0-0-3---3-3---3-3-3-|-1---1-1---1-1-1-6---6-6---6-6-6-|
D|-0---0-0---0-0-0-----------------|---------------------------------|

(Guitar 1)
e|-----------------------------------------|-----------------------------------------|
B|-----------------------------------------|-----------------------------------------|
G|----------------------5---5--5---5--5--5-|--3---3--3---3--3--3--2---2--2---2--2--2-|
D|--0---0--0---0--0--0--5---5--5---5--5--5-|--3---3--3---3--3--3--2---2--2---2--2--2-|
A|--0---0--0---0--0--0--3---3--3---3--3--3-|--1---1--1---1--1--1--0---0--0---0--0--0-|
D|--0---0--0---0--0--0---------------------|-----------------------------------------|
(Guitar 2)
e|-----------------------------------------|-----------------------------------------|
B|-----------------------------------------|-----------------------------------------|
G|--------------------------------12-15-14-|-----------------------------------------|
D|-12--14-15--14-12-14-12--14-15-----------|-12--14-15--14-12-14-12--14-15--14-------|
A|-----------------------------------------|-----------------------------------15~---|
D|-----------------------------------------|-----------------------------------------|
(Guitar 3)
e|-----------------------------------------|-----------------------------------------|
B|-----------------------------------------|-----------------------------------------|
G|--------------------------------15-19-17-|-----------------------------------------|
D|-15--17-19--17-15-17-15--17-19-----------|-15--17-19--17-15-17-15--17-19--17-14~---|
A|-----------------------------------------|-----------------------------------------|
D|-----------------------------------------|-----------------------------------------|

(Guitar 1)
e|-----------------------------------------|-----------------------------------------|
B|-----------------------------------------|-----------------------------------------|
G|----------------------5---5--5---5--5--5-|--3---3--3---3--3--3---8~----------------|
D|--0---0--0---0--0--0--5---5--5---5--5--5-|--3---3--3---3--3--3---8~----------------|
A|--0---0--0---0--0--0--3---3--3---3--3--3-|--1---1--1---1--1--1---6~----------------|
D|--0---0--0---0--0--0---------------------|-----------------------------------------|
(Guitar 2)
e|-----------------------------------------|-----------------------------------------|
B|-----------------------------------------|-----------------------------------------|
G|--------------------------------12-15-14-|-----------------------------------------|
D|-12--14-15--14-12-14-12--14-15-----------|-12--14-15--14-12h14p12------------------|
A|-----------------------------------------|-----------------------15~------15~------|
D|-----------------------------------------|-----------------------------------------|
(Guitar 3)
e|-----------------------------------------|-----------------------------------------|
B|-----------------------------------------|-----------------------------------------|
G|--------------------------------15-19-17-|-----------------------------------------|
D|-15--17-19--17-15-17-15--17-19-----------|-15--17-19--17-15h17p15------------------|
A|-----------------------------------------|-----------------------17~------17~------|
D|-----------------------------------------|-----------------------------------------|

Pre-Chorus
e|---------------------------------|---------------------------------|
B|---------------------------------|---------------------------------|
G|-----------------5---5-5---5-5-5-|---------------------------------|
D|-0---0-0---0-0-0-5---5-5---5-5-5-|-3---3-3---3-3-3-3-3-3-3-3-3-3-3-|
A|-0---0-0---0-0-0-3---3-3---3-3-3-|-3---3-3---3-3-3-3-3-3-3-3-3-3-3-|
D|-0---0-0---0-0-0-----------------|-3---3-3---3-3-3-3-3-3-3-3-3-3-3-|

More to come
Tap to rate this tab
# A B C D E F G H I J K L M N O P Q R S T U V W X Y Z