Song name
# A B C D E F G H I J K L M N O P Q R S T U V W X Y Z

Dark Fortress - Misanthropic Invocation tab

These are just the notes that are played, listen to the song to see how many times its 
played, picking patterns etc.


riff 1 tremolo picking
e||----------------------------------------------------------------|
B||----------------------------------------------------------------|
G||----------------------------------------------------------------|
D||--------9------9------9-------10-------9------9------9------8---|
A||---7-10---7-10---7-10----8-11-----7-10---7-10---7-10----6-9-----|
E||----------------------------------------------------------------|
riff 2
e||----------------------------|
B||----------------------------|
G||----------------------------|
D||----9---10----9------8---9--|
A||----7---8-----7------6---7--|
E||-0----0----0-----0-----0----|

riff 1 tremolo picking
e||----------------------------------------------------------------|
B||----------------------------------------------------------------|
G||----------------------------------------------------------------|
D||--------9------9------9-------10-------9------9------9------8---|
A||---7-10---7-10---7-10----8-11-----7-10---7-10---7-10----6-9-----|
E||----------------------------------------------------------------|

riff 3 tremolo picking
e||------------------------------------|
B||------------------------------------|
G||------------------------------------|
D||------------------------------------|
A||------------------------------------|
E||---3--6-5--11-10--8-11--3-6-3-2-----|

riff 1 tremolo picking
e||----------------------------------------------------------------|
B||----------------------------------------------------------------|
G||----------------------------------------------------------------|
D||--------9------9------9-------10-------9------9------9------8---|
A||---7-10---7-10---7-10----8-11-----7-10---7-10---7-10----6-9-----|
E||----------------------------------------------------------------|


riff 4 tremolo picking
e||--------------------------|
B||--------------------------|
G||----------------9-10-9-10-|
D||-----9-8----9-8-----------|
A||---7------7---------------|
E||--------------------------|

riff 3 tremolo picking
e||------------------------------------|
B||------------------------------------|
G||------------------------------------|
D||------------------------------------|
A||------------------------------------|
E||---3--6-5--11-10--8-11--3-6-3-2-----|


riff 5 listen to the song.
e||-----------------------|
B||-----------------------|
G||-----------------------|
D||-----------------------|
A||---12-11-12-14-15-14---|
E||---10-9--10-12-13-12---|


riff 1 tremolo picking
e||----------------------------------------------------------------|
B||----------------------------------------------------------------|
G||----------------------------------------------------------------|
D||--------9------9------9-------10-------9------9------9------8---|
A||---7-10---7-10---7-10----8-11-----7-10---7-10---7-10----6-9-----|
E||----------------------------------------------------------------|

riff 2 again, listen to the song.
e||----------------------------|
B||----------------------------|
G||----------------------------|
D||----9---10----9------8---9--|
A||----7---8-----7------6---7--|
E||-0----0----0-----0-----0----|

riff 1 tremolo picking
e||----------------------------------------------------------------|
B||----------------------------------------------------------------|
G||----------------------------------------------------------------|
D||--------9------9------9-------10-------9------9------9------8---|
A||---7-10---7-10---7-10----8-11-----7-10---7-10---7-10----6-9-----|
E||----------------------------------------------------------------|
Tap to rate this tab
# A B C D E F G H I J K L M N O P Q R S T U V W X Y Z