Song name
# A B C D E F G H I J K L M N O P Q R S T U V W X Y Z

Dark Fortress - Moments Of Mournfull Splendour tab

Listen to the solo for timing etc.

e||---------------------------12-----------------------------------------|
B||----15b-15b-15-13-12-13-15----15-13-12-13-12--------------------------|
G||---------------------------------------------14--14-12----------------|
D||-------------------------------------------------------15-14-12-------|
A||----------------------------------------------------------------15-12-|
E||----------------------------------------------------------------------|

----------------------------------------------------|
----------------------------------------------------|
-------14-12----------------------------------------|
----14-------14-12--12-14-15-14-12------------------|
-12--------------------------------15-14-15p14-12---|
----------------------------------------------------|

e||--------------------------12----12-15-12-15/17--17-15-13-12--------------------------|
B||---15b-15b-15-13-12-13-15----15-----------------------------15-13--------------------|
G||------------------------------------------------------------------14--14-16-17-19-17-|
D||-------------------------------------------------------------------------------------|
A||-------------------------------------------------------------------------------------|
E||-------------------------------------------------------------------------------------|

----------------------------------------------|
----------------------------------------------|
-14-12-14-12----------------------------------|
-------------15-14-12-------------------------|
----------------------15-14-15-14-12--10/12---|
----------------------------------------------|
Tap to rate this tab
# A B C D E F G H I J K L M N O P Q R S T U V W X Y Z