Song name
# A B C D E F G H I J K L M N O P Q R S T U V W X Y Z

Dark Fortress - Apocalypse tab

These are just the notes that are played, listen to the song to see how many times
everything is played,what picking patterns are used etc.


riff 1 tremolo picking
e||-----------------------------------------|
B||-----------------------------------------|
G||-----------------------------------------|
D||---------------3-------------------------|
A||-------------3---3-----------------------|
E||----000000-1-------000000--1--3----------|

riff 2 tremolo picking
e||---------------------------------------------------------|
B||---------------------------------------------------------|
G||-------9-10-9-7---------------------12-13-12---11-12-11--|
D||----------------10-9-10----------10----------9-----------|
A||---777-------------------777777--------------------------|
E||---------------------------------------------------------|

riff 3 tremolo picking
e||----------------------------------------------------------------------------------------|
B||----------------------------------------------------------------------------------------|
G||----------------------------------------------------------------------------------------|
D||-----9-10-9-7-------------10-11-10-8--------------9-10-9-7-------------5-6-5-----4-5-4--|
A||---7----------10-9-10---8------------11-10-11---7----------10-9-10---3--------2---------|
E||----------------------------------------------------------------------------------------|

riff 4
e||-------------------------------------------------|
B||-------------------------------------------------|
G||-------------------------------------------------|
D||-------------------------------------------------|
A||---2------10-----12-----9---10---9---------------|
E||---0------8------10-----7---8----7---------------|

riff 5
e||-------------------------------------------------------|
B||-------------------------------------------------------|
G||-------------------------------------------------------|
D||-----------------9-------------------------------------|
A||---------------7--------7-8-7t8p7t8-----7-8-7---10-8---|
E||-----00000000-------000-------------00--------8--------|

riff 2 tremolo picking
e||---------------------------------------------------------|
B||---------------------------------------------------------|
G||-------9-10-9-7---------------------12-13-12---11-12-11--|
D||----------------10-9-10----------10----------9-----------|
A||---777-------------------777777--------------------------|
E||---------------------------------------------------------|

riff 6
e||--------------------------|
B||--------------------------|
G||--------------------------|
D||-----9--10--9--5--4-------|
A||-----7--8---7--3--2-------|
E||--------------------------|

riff 2 tremolo picking
e||---------------------------------------------------------|
B||---------------------------------------------------------|
G||-------9-10-9-7---------------------12-13-12---11-12-11--|
D||----------------10-9-10----------10----------9-----------|
A||---777-------------------777777--------------------------|
E||---------------------------------------------------------|

riff 3 tremolo picking
e||----------------------------------------------------------------------------------------|
B||----------------------------------------------------------------------------------------|
G||----------------------------------------------------------------------------------------|
D||-----9-10-9-7-------------10-11-10-8--------------9-10-9-7-------------5-6-5-----4-5-4--|
A||---7----------10-9-10---8------------11-10-11---7----------10-9-10---3--------2---------|
E||----------------------------------------------------------------------------------------|
Tap to rate this tab
 
# A B C D E F G H I J K L M N O P Q R S T U V W X Y Z