Song name
# A B C D E F G H I J K L M N O P Q R S T U V W X Y Z

Dark Funeral - Attera Totum Sanctus tab

Help us improve GuitareTab! Take a short survey!
ok Folks!!! i Got it down!! ok well the rythym is just b5,b5,b5,g5,f#5


E|------------------------------------------------|
B|-----------3-----------2---- 3------------------|
G|------4--------0-----------------4--3-----------|
D|------------------------------------------------|
A|--2---------------------------------------------|
E|------------------------------------------------|


E|-----------------------------------------------|
B|------------3-----------2--3--5--2-------------|
G|-------4--------0------------------------------|
D|-----------------------------------------------|
A|---2-------------------------------------------|
E|-----------------------------------------------|


E|-----------------------------------------------|
B|-----------3-----------2---- 3-----------------|
G|------4--------0-----------------4--3----------|
D|-----------------------------------------------|
A|--2--------------------------------------------|
E|-----------------------------------------------|


E|-----------------------------------------------|
B|------------------------3--2-------------------|
G|----------0--3--0--------------4---3-----------|
D|-----------------------------------------------|
A|-----------------------------------------------|
E|----3------------------------------------------|

For more Questions Contact Me At h_fox13@hotmail.com
Related for Attera Totum Sanctus tab