Song name
# A B C D E F G H I J K L M N O P Q R S T U V W X Y Z

Dark Funeral - Heart Of Ice tab

Band- Dark Funeral
Song- Heart Of Ice

Tuning E A D G B E

|-------------------------------------------------------------------|
|-------------------------------------------------------------------|
|-5-----------------------------------------------------------------|g2
|-5----------------------------2------------------------------------|
|-3----------------------------2------------------------------------|
|------------------------------0------------------------------------|

|---0---------------------------------------------------------------|
|---------0----------------5-----6----------------------------------|
|---0----------0----------------------------------------------------|g1
|--------------------22---------------------------------------------|
|-------------------------------------------------------------------|
|-------------------------------------------------------------------|

|-------------------------------------------------------------------|
|-------------------------------------------------------------------|
|-5"-----------------------------------------------------------------|g2
|-5"-------------------------2"---------------------------------------|
|-3"-------------------------2"---------------------------------------|
|----------------------------0"--------------------------------------|




|---1"----------------0"--------------------4"--6"----5"4"---0"-----|
|-------------------------------------------------------------------|
|-----------4"5"----------------2"-----------------------------------
|-------------------------------------------------------------------|g1
|--------------------------1"----------------------------------------|
|-------------------------------------------------------------------|


|-------------------------------------------------------------------|
|-------------------------------------------------------------------|
|-------------------------------------------------------------------|g1&2
|-------------------------------------------------------------------|
|---2\----3-3-------4-4-----------------------------(4)--------------
|---2\----3-3-------2-2-----------------------------(2)--------------
Tap to rate this tab
# A B C D E F G H I J K L M N O P Q R S T U V W X Y Z