Song name
# A B C D E F G H I J K L M N O P Q R S T U V W X Y Z

Dark Funeral - Feed On The Mortals tab

 
Intro 2x
|--------------------------------------------------------------------------|
|--------------------------------------------------------------------------|
|--------------------------------------------------------------------------|
|-------0------0-----------0-----0---------0-----0----------0------0-------|
|-----1------1------1---1-----1-----1---1-----1-----1---1------1-----1-----|
|--3-------3-----3----2-----2-----2---1-----1-----1---0-----0------0-------|

2x
|------------------|---------------|-----------------|--------------|
|------------------|---------------|-----------------|--------------|
|------------------|---------------|-----------------|--------------|
|------------------|---------------|-----------------|--------------|
|-6----------------|-5-------------|-4----------------|-3-----------|
|------------------|---------------|-----------------|--------------|

2x
|----------------|---------------|------------------|---------------------|
|----------------|---------------|------------------|---------------------|
|----------------|---------------|------------------|---------------------|
|--2--------2----|--1---1--5-----|--0-------0-------|---------------------|
|----0--3--------|----2----------|-----1------------|--2--0--4--1---------|
|----------------|---------------|-------3----------|---------------------|

2x
|----------------|---------------------|-----------------------------------|
|----------------|---------------------|-----------------------------------|
|----------------|---------------------|-----------------------------------|
|-5--------------|-0----1--------------|6---5---------0--1--------0--------|
|----------------|---------------------|-----------------------------------|
|----------------|---------------------|-----------------------------------|
Tap to rate this tab
 
# A B C D E F G H I J K L M N O P Q R S T U V W X Y Z