Song name
# A B C D E F G H I J K L M N O P Q R S T U V W X Y Z

Dark Funeral - Atrum Regina tab

e ----------------------------|
b ----------------------------|
g -7-6-2-7-10-6--7-6-2-7-12-6-|
d ----------------------------|
A ----------------------------|
E ----------------------------|

Guitar 1
e ----------------------------|
b ----------------------------|
g -7-6-2-7-10-6--7-6-2-7-12-6-|
d ----------------------------|
A ----------------------------|
E ----------------------------|

Guitar 2
e ----------------------------|
b ----------------------------|
g ----------------------------|
d ----------------------------|
A -7-6-2-7-10-6--7-6-2-7-12-6-|
E -7-6-2-7-10-6--7-6-2-7-12-6-|

This is all what i tabed right now very easy when you are beginning whit playing guitar.
Good luck.
Tap to rate this tab
 
# A B C D E F G H I J K L M N O P Q R S T U V W X Y Z